>
 >
Faces

Faces Guitar Tabs

Scary Kids Scaring Kids - Faces chords, tabs, tablatures, lyrics

Guitar lessons | Add/correct | Request | Top 50 tabs Artists:  A B C D E F G H I J K L M N O P Q R S T U V W X Y Z 0-9

Faces Guitar Tabs – Scary Kids Scaring Kids

CD, Sheet music, Poster

Do you like Faces? Share with your friends now
TabsTabs v2
-------------------------------------------------------------------------------
-------------------------------------------------------------------------------

Tuning:Standar   (  >> : play as times as you hear )

  
 Guitar 1
   
|-------------------------------------------------------------------|
|-------------------------------------------------------------------|
|-------------------------------------------------------------------|
|----7-----8---5-7--000-0-000-000-----7-----8---5-----5-7-5h7h5-----|
|-------------------000-0-000-000-----------------5-8-----------7-3-|
|--0---0-0---0------000-0-000-000---0---0-0---0---------------------|
   *   * *   *      *** * *** ***   *   * *   *

|-----------------------------------------------------------------------|
|------------------------------------------------------8-10-8h10h8------|
|-------------------------------------------------7-10-------------9-10-|
|----7-----8---5-7--000-0-000-000-----7-----8---5-----------------------|
|-------------------000-0-000-000---------------------------------------|
|--0---0-0---0------000-0-000-000---0---0-0---0-------------------------|
   *   * *   *      *** * *** ***   *   * *   *
 Guitar 2
   
|-----------------------------------------------------------------------|
|-----------------------------------------------------------------------|
|-----------------------------------------------------------------------|
|----7-----8---5-7--000-0-000-000-----7-----8---5-----7-10-8h10h8-------|
|-------------------000-0-000-000-----------------5-8-------------10-8--|
|--0---0-0---0------000-0-000-000---0---0-0---0-------------------------|
   *   * *   *      *** * *** ***   *   * *   *

|-------------------------------------------------------------------------|
|-----------------------------------------------------10-13-11h13h11------|
|------------------------------------------------7-10----------------12-14|
|---7-----8---5-7--000-0-000-000-----7-----8---5--------------------------|
|------------------000-0-000-000------------------------------------------|
|-0---0-0---0------000-0-000-000---0---0-0---0----------------------------|


 Both
|----------|------------------------------------------------------------|
|----------|------------------------------------------------------------|
|----------|------------------------------------------------------------|
|-888->>>>-|-00--------000---------------00------------------------88>>-|
|-888->>>>-|-00-8---7--000-12h10h12-8h7--00-8---7--8-7-8-7---7-8-7-88>>-|
|-888->>>>-|-00---0----000---------------00---0------------8-------88>>-|
                  *    ***                      
 Guitar 1

|----------|------------------------------------------------------------|
|----------|------------------------------------------------------------|
|----------|------------------------------------------------------------|
|-888->>>>-|-00--------000---------------00------------------------88>>-|
|-888->>>>-|-00-8---7--000-12h10h12-8h7--00-8---7--8-7-8-7---7-8-7-88>>-|
|-888->>>>-|-00---0----000---------------00---0------------8-------88>>-|
                  *    ***      
 Guitar 2
   
|--------------------------------------------------------------------|
|--------------------------------------------------------------------|
|--------------------------------------------------------------------|
|-00--------000-----------------00--------------------------------88-|
|-00-8---7--000-15h13h15-12h10--00-8---7--12-10-12-10----10-12-10-88-|
|-00---0----000-----------------00---0----------------12----------88-|
       *    ***                      
 Both
 
|------------------------------|
|------------------------------|
|------------------------------|
|-888->>-101010->>-555->>-7...-|
|-888->>-101010->>-555->>-7...-|
|-888->>-101010->>-555->>-7...-|
  

 Guitar 1  
         Keyboard (guitar)     
  x3
|--------14--------14-12-----------14--17-15-14-------|
|--12-15-----12-15-------15--12-15--------------17-15-|
|-----------------------------------------------------|
|-----------------------------------------------------|
|-----------------------------------------------------|
|-----------------------------------------------------|

|-------14--------14--------------14--17-15-14-------|
|-12-15-----12-15-----15-12-12-15--------------17-15-|
|----------------------------------------------------|
|----------------------------------------------------|
|----------------------------------------------------|
|----------------------------------------------------|

Guitar 2

   x2
|--------------------|
|--------------------|  
|--------------------|  
|-999->>-555->>-777--|  
|-999->>-555->>-777--|  
|-999->>-555->>-777--|  

|-----------------------------|
|-----------------------------|
|-----------------------------|
|-999->>-555->>-777->>-555->>-|
|-999->>-555->>-777->>-555->>-|
|-999->>-555->>-777->>-555->>-|





Comments


Popular Scary Kids Scaring Kids tabs & chords
Snake Devil Bass Tabs
Star Crossed 2 Bass Tabs
Star Crossed Chords
Watch Me Bleed Chords
Blood Runs Forever 1 Tabs
De-Railed Tabs
Degenerates Tabs
Star Crossed Intro 1 Tabs
Whats Up Now Intro Tabs
World As We Know It Intro Tabs


Song lyrics



↑ Back to top | Tablatures and chords are parodies/interpretations of the original songs. You may use it for private study, scholarship, research or language learning purposes only
© 2014 AZChords.com Contact us | Privacy policy | DMCA | Add/correct tabs | Request tabs | Top 50 tabs