» » »

Empty Glass Bass tabs (ver.1)

Artists:  A B C D E F G H I J K L M N O P Q R S T U V W X Y Z # 

Empty Glass Bass tabs (ver.1)

Scary Kids Scaring Kids
Rating:
0/5 (0 votes)

Hard to play? Try these video lessons and learn fast.
                This song is easy and good
THIS WHOLE SONG IS PALM MUTED

Intro

G---------------------------------------|
D---------------------------------------|
A---------------------------------------|
E-2-2-----2-2---6----2-2----2-2---6---2-|

Verse x2

G----------------------------|
D----------------------------|
A----------------------------|
E-2-2----6---2-2----4--2-2-3-|

Chorus x5

G------------------------------------|
D------------------------------------|
A------------------------------------|
E-2-2--6--2-2---7--2-2--5---4-4--3-3-|

Bridge x10

G------------|
D------------|
A------------|
E-2-2----2-2-|

Chorus x5

G------------------------------------|
D------------------------------------|
A------------------------------------|
E-2-2--6--2-2---7--2-2--5---4-4--3-3-|

Outro x2

G------------|
D------------|
A------------|
E-2-2----2-2-|
            
Hard to play? Try these video lessons and learn fast. | Correct




comments powered by Disqus
↑ Back to top | Tablatures and chords are parodies/interpretations of the original songs. You may use it for private study, scholarship, research or language learning purposes only