» » »

De-Railed Tabs (ver.2)

Artists:  A B C D E F G H I J K L M N O P Q R S T U V W X Y Z # 

De-Railed Tabs (ver.2)

Scary Kids Scaring Kids
Rating:
4/5 (1 vote)

Hard to play? Try these video lessons and learn fast.
                (Intro)
e------------------------------------------------------0------------|
b----------------------3---------------3-----3------------3---------|
g-------0------------0---------------------------------------0------|
d-----0------------0-------4-7/9\7-5------4-----2---------------4---|
a---3-----3------3--------------------------------------------------|
E-------------------------------------------------------------------|

e--0----------------------------------------------------------------|
b----3--------------------------------------------------------------|
g------0------------------------------------------------------------|
d--------4--5--7--9--5----------------------------------------------|
a-------------------------------------------------------------------|
E-------------------------------------------------------------------|
            
Hard to play? Try these video lessons and learn fast. | Correct




comments powered by Disqus
↑ Back to top | Tablatures and chords are parodies/interpretations of the original songs. You may use it for private study, scholarship, research or language learning purposes only