>
 >
De-Railed 1

De-Railed 1 Guitar Tabs

Scary Kids Scaring Kids - De-Railed 1 chords, tabs, tablatures, lyrics

Guitar lessons | Add/correct | Request | Top 50 tabs Artists:  A B C D E F G H I J K L M N O P Q R S T U V W X Y Z 0-9

De-Railed 1 Guitar Tabs – Scary Kids Scaring Kids

CD, Sheet music, Poster

Do you like De-Railed 1? Share with your friends now
TabsTabs v2
-------------------------------------------------------------------------------
                      Derailed - Scary Kids Scaring Kids
-------------------------------------------------------------------------------

Tuning: Standard
Guitars one and two: Acoustic steel string
Guitar three: Clean Electric w/slight delay

Guitar One:

e|--------------|-------------------------------------------|
B|--------------|-----------3------------------3--------3---|
G|-------0------|--------0---------2h4p2---0------------0---|
D|----0---------|-----0---------4------------------4----0---|
A|-3---------3--|--3----------------------------------------|
E|--------------|-------------------------------------------|

e|-0-----------0--------------------|----------------|
B|----3----3------3-----------------|----------------|
G|---------0---------0-----0--2--4--|--0-----0-------|
D|---------0------------4-----------|--0--0----------|
A|----------------------------------|--3---------3---|
E|----------------------------------|----------------|

[
e|------------------------------------|--0--------------------|--------------|
B|----------3-------------------------|-----3-----------------|--------------|
G|-------0---------2h4p2--0-----0-----|--------0-----0--------|-------0------|
D|----0---------4------------4-----2--|-----------4-----4--0--|----0---------|
A|-3----------------------------------|-----------------------|-3--------3---|
E|------------------------------------|-----------------------|--------------|

Guitar Two:

e|----------------------------0-------|-----------------------|--------------|
B|-------------------------------3----|-----------------------|--------------|
G|----------------------------------0-|-----------------------|--------------|
D|------------------------------------|-----------------------|--------------|
A|------------------------------------|-----------------------|--------------|
E|------------------------------------|-----------------------|--------------|
                                                                              ]
Guitar One:

e|-----------------------------------0-----------0---------------------|
B|----------3---------------3-----3-----3-----3-----3------------------|
G|-------0--------2h4p2--0--------0--------0--0--------0-----0--2h4--0-|
D|----0--------4---------------4--0-----------0-----------4----------2-|
A|-3-----------------------------------------------------------------3-|
E|---------------------------------------------------------------------|


e|-----------------0-------------------|--------0----------------|
B|--3-----3--3--3--5-------------------|-----------3-------------|
G|--0-----0--0--0--0-------------------|--------------0----------|
D|--2-----2--2--2--4-------------------|-----0-----------4-------|
A|--3-----3--3--3--5-------------------|--3----------------------|
E|-------------------------------------|-------------------------|

[
e|--------------|-----------------------------------------|--0-------------------------|
B|--------------|-----------3---------------3------3------|-----3----------------------|
G|--------0-----|--------0--------2h4p2--0---------0------|--------0-----0-------------|
D|-----0--------|-----0--------4---------------4---0---2--|-----------4-----4--0-------|
A|--3--------3--|--3--------------------------------------|----------------------------|
E|--------------|-----------------------------------------|----------------------------|

Guitar Two:

e|--------------|-----------------------------0-----------|----------------------------|
B|--------------|--------------------------------3--------|----------------------------|
G|--------------|-----------------------------------0-----|----------------------------|
D|--------------|-----------------------------------------|----------------------------|
A|--------------|-----------------------------------------|----------------------------|
E|--------------|-----------------------------------------|----------------------------|

Guitar Three:

e|--------------|-----------------------------------------|----------------------------|
B|--------------|-----------------------------------------|-10----10----12----10-------|
G|--------------|-----------------------------------------|----12----12----12----12----|
D|--------------|-----------------------------------------|-------------------------12-|
A|--------------|-----------------------------------------|----------------------------|
E|--------------|-----------------------------------------|----------------------------|
                                                                                        ]
[Guitar One:

e|---------------|------------------------------------------0-----0-------------------------|
B|---------------|-----------3---------------3-----------3-----3-----3----------------------|
G|---------0-----|--------0--------2h4p2--0--------0-----0--------------0-----0--4--2---0---|
D|------0--------|-----0--------4---------------4-----4--4-----------------4------------0---|
A|--3---------3--|--3-------------------------------------------------------------------3---|
E|---------------|--------------------------------------------------------------------------|

Guitar Three

e|---------------|-------------------------------------------------------7----7-10\12-10-12-|
B|---------------|----------------------------------------------8---8-10---10---------------|
G|---------------|--------------------------------------7---7-9---9-------------------------|
D|---------------|---------------------------------7--9---9---------------------------------|
A|---------------|--------------------------------------------------------------------------|
E|---------------|--------------------------------------------------------------------------|
                                                                                             ]
Guitar One:

e|------------------0----------------------------|
B|---3-----3--3--2--5----------------------------|
G|---0-----0--0--0--0----------------------------|
D|---2-----2--2--2--4----------------------------|
A|---3-----3--3--3--5----------------------------|
E|-----------------------------------------------|





Comments


Popular Scary Kids Scaring Kids tabs & chords
The Only Medicine Bass Tabs
The Only Medicine 2 Bass Tabs
Blood Runs Forever Tabs
City Sleeps In Flames Tabs
Deep End Tabs
Snake Devil 1 Tabs
Star Crossed Tabs
Star Crossed Intro 1 Tabs
The Only Medicine 4 Tabs
Whats Up Now Intro Tabs


Song lyrics



↑ Back to top | Tablatures and chords are parodies/interpretations of the original songs. You may use it for private study, scholarship, research or language learning purposes only
© 2014 AZChords.com Contact us | Privacy policy | DMCA | Add/correct tabs | Request tabs | Top 50 tabs