» » »

Scary Kids Scaring Kids, De-Railed Tabs (ver.1)

Artists:  A B C D E F G H I J K L M N O P Q R S T U V W X Y Z # 

De-Railed Tabs (ver.1)

Scary Kids Scaring Kids Tabs
Rating:
0/5 (0 votes)
Hard to play? Try these video lessons and learn fast.
                e|-----------------------------------------0-------0-------------|
b|---------------------3-----------3---------3-------3-----------|
g|-------0-----------0---------------0---------0-------0---------|
d|-----0-----------0-----4-7h9p7-5-----4-----------------4-5-7\9-|
a|-3-------3---3-------------------------------------------------|
E|---------------------------------------------------------------|

e|-----------------------------------------0-------------|
b|---------------------3-----------3---------3-----------|
g|-------0-----------0---------------0---------0---------|
d|-5---0-----------0-----4-7\----5-----4---------4-5-7\9-|
a|---------3---3-----------------------------------------|
E|-------------------------------------------------------|

e|-----------------------------------------0-------0-------------|
b|---------------------3-----------3---------3-------3-----------|
g|-------0-----------0---------------0---------0-------0-------x-|
d|-----0-----------0-----4-7\9/7-5-----4-----------------4-5-7-5-|
a|-3-------3---3-------------------------------------------------|
E|---------------------------------------------------------------|

e|-x---x-x-x-x----------0-------|
b|-3---3-3-3-3------------3-----|
g|-0---0-0-0-0--------------0---|
d|-x---x-x-x-x--------0-------4-|
a|-3---3-3-3-3----3-------------|
E|-x---x-x-x-x------------------|
   d   u d u d

e|-----------------------------------------0-------------|
b|---------------------3-----------3---------3-----------|
g|-------0-----------0---------------0---------0---------|
d|-----0-----------0-----4-7\----5-----4---------4-5-7\9-|
a|-3-------3---3-----------------------------------------|
E|-------------------------------------------------------|

e|-----------------------------------------0-------0-------------|
b|---------------------3-----------3---------3-------3-----------|
g|-------0-----------0---------------0---------0-------0---------|
d|-----0-----------0-----4-7\9/7-5-----4-----------------4-5-7-5-|
a|-3-------3---3-------------------------------------------------|
E|---------------------------------------------------------------|

e|-x---x-x-x-x--------|
b|-3---3-3-3-3--------|
g|-0---0-0-0-0--------|
d|-x---x-x-x-x--------|
a|-3---3-3-3-3--------|
E|-x---x-x-x-x--------|
   d   u d u d
            

comments powered by Disqus
↑ Back to top | Scary Kids Scaring Kids Tabs for De-Railed. Lyrics for acoustic guitar and electric guitar. Tablatures and chords are parodies/interpretations of the original songs. You may use it for private study, scholarship, research or language learning purposes only