» » »

Scars Of Life, Shallow Tabs (ver.2)

Artists:  A B C D E F G H I J K L M N O P Q R S T U V W X Y Z # 

Shallow Tabs (ver.2)

Scars Of Life Tabs
 Rating:
4.2/5 (5 votes)
Shallow lessons Tabs too difficult? Try these video lessons and learn fast
1
                -------------------------------------------------------------------------------
                             Shallow - Scars Of Life
-------------------------------------------------------------------------------

Tuning: C,G,C,F,A,D

INTRO + 1stVERSE:

|---------------------------------------------------------------|
|---------------------------------------------------------------| X4
|--77777777-/-10101010-/-1212-\-10=-----------------------------|
|--77777777-/-10101010-/-1212-\-10=------8----------7-----------|
|--55555555-/--8-8-8-8-/-1010-\--8=----8---8--8---7---7--7------|
|------------------------------------8-------8--7-------7-------|

CHORUS:

|---------------------------------------------------------------|
|---------------------------------------------------------------|  X2
|---------------------------------------------------------------|
|--0-8-0-8h10-00000000-55555555--0-8-0-8h10-00000000-33333333---|
|--0-8-0-8h10-00000000-55555555--0-8-0-8h10-00000000-33333333---|
|--0-8-0-8h10-00000000-55555555--0-8-0-8h10-00000000-33333333---|
PM .   .                         .   .

2nd VERSE:

|---------------------------------------------------------------|
|---------------------------------------------------------------|  X2
|--77777777-/-10101010-/-1212-\-10=-----------------------------|
|--77777777-/-10101010-/-1212-\-10=-88888888-77777777-----------|
|--55555555-/--8-8-8-8-/-1010-\--8=-88888888-77777777-----------|
|-----------------------------------88888888-77777777-----------|

CHORUS: play chorus as above

BRIDGE: played straight after second chorus

|---------------------------------------------------------------------|
|---------------------------------------------------------------------|  X4
|------8---8--8-----5---5--5------------------------------------------|
|----8---8---8----5---5---5--00-0-0-0-0-1-0-1-0-1-00-0-0-0-0-1-0-1-0-1|
|--6------------3------------00-0-0-0-0-1-0-1-0-1-00-0-0-0-0-1-0-1-0-1|
|----------------------------00-0-0-0-0-1-0-1-0-1-00-0-0-0-0-1-0-1-0-1|
PM                           ..   .   .   .   .   ..   .   .   .   .

then-->

|-----------------------------------------------|
|-----------------------------------------------|  X2
|--7=--------8=--8--------7=---------5=--5------|
|--7=--------8=----8--8---7=---------3=----5--5-|
|--5=--------6=------6----5=---------3=------3--|
|-----------------------------------------------|

then-->

|------------------------------|
|---------------3--------------|  X3
|-----------------3------------|
|----5-5-5h7--------5-7--------|
|--5---------------------------|
|-------------1----------------|

on fourth time let 6th string ring on 1 shown below

|--------------------|
|--------------------|
|--------------------|
|----5-5-5h6---------|
|--5-----------------|
|-------------1=-----|

CHORUS: Play chorus as tabbed above but play 8 times instead of four

OUTRO:

|------------------------------------------------|
|------------------------------------------------|  X2
|------------------------------------------------|
|---00-0-0-0-0-1-0-1-0-1-00-0-0-0-0-1-0-1-0-1----|
|---00-0-0-0-0-1-0-1-0-1-00-0-0-0-0-1-0-1-0-1----|
|---00-0-0-0-0-1-0-1-0-1-00-0-0-0-0-1-0-1-0-1----|
PM  ..   .   .   .   .   ..   .   .   .   .

then-->

|------------------------------------------------|
|------------------------------------------------|  X2
|------------------------------------------------|
|---00-0=-----1-0-1-0-1-00-0=-------1-0-1-0-1----|
|---00-0=-----1-0-1-0-1-00-0=-------1-0-1-0-1----|
|---00-0=-----1-0-1-0-1-00-0=-------1-0-1-0-1----|
PM  ..          .   .   ..            .   .

| /  slide up
| \  slide down
| h  hammer-on
| p  pull-off
| ~  vibrato
| +  harmonic
| x  Mute note
| =  Let ring
| PM Palm mute
===============================================================================
            
Submit corrections

comments powered by Disqus
↑ Back to top | Scars Of Life Tabs for Shallow. Lyrics for acoustic guitar and electric guitar. 1 Tablatures and chords are parodies/interpretations of the original songs. You may use it for private study, scholarship, research or language learning purposes only