» » »

Scars Of Life, Placebo Tabs (ver.1)

Artists:  A B C D E F G H I J K L M N O P Q R S T U V W X Y Z # 

Placebo Tabs (ver.1)

Scars Of Life Tabs
 Rating:
4/5 (4 votes)
Placebo lessons Tabs too difficult? Try these video lessons and learn fast
                Scars Of Life: Placebo




Tuning: Drop C (C,G,C,F,A,D)

Riff 1 (Guitar 1)
D|-------------------------------------------------------------------------|
A|-------------------------------------------------------------------------|
F|-9-9-9-9-9-9-9-9-9-9-9-9-9-9-9-9-9-9-9-9-9-9-9-9-9b-9b-9b-9b-9b-9b-9b-9b-|
C|-------------------------------------------------------------------------|
G|-------------------------------------------------------------------------|
C|-------------------------------------------------------------------------|
   * * * * * * * * * * * * * * * *

Note: Gradually bend 1/2 step

Riff 1 (Guitar 2)
D|----------------------------|
A|----------------------------|
F|----------------------------|
C|-2-2-----3-3-----2-3---0----|
G|-2-2-----3-3-----2-3---0----|
C|-2-2-----3-3-----2-3---0----|
   * *     * *     * *

Play Riff 1 x4

Riff 2
D|---------------------------x-x-x-x-|
A|---------------------------x-x-x-x-|
F|---------------------------x-x-x-x-|
C|---------------------------x-x-x-x-|
G|---------------------------x-x-x-x-|
C|-2222-0-3-2-0-2222-0-3-2-0-x-x-x-x-|
   **** * * * * **** * * * *

Play Riff 2 x2

Riff 3
D|---------------------------------|
A|---------------------------------|
F|---------------------------------|
C|-2-2-0-3-2-0-2-2-0-3-2-0-x-x-x-x-|
G|-2-2-0-3-2-0-2-2-0-3-2-0-x-x-x-x-|
C|-2-2-0-3-2-0-2-2-0-3-2-0-x-x-x-x-|

Play Riff 3 x4

Play Riff 1 x4   "Fake a smile, I force a tear..."

Riff 4   "I just can't be around you..."
D|---------------------------------------------------|
A|---------------------------------------------------|
F|--------12-12-12\11-11-11--------12-12-12/14-14-14-|
C|-2-2-2--x--x--x--x--x--x--0-0-0--x--x--x--x--x--x--|
G|-2-2-2--10-10-10\9--9--9--0-0-0--10-10-10/12-12-12-|
C|-2-2-2--------------------0-0-0--------------------|

D|------------------------------------------------|
A|------------------------------------------------|
F|--------12-12-12\11-11-11-----------------------|
C|-2-2-2--x--x--x--x--x--x----5-5-5--0-0--0-0-0-0-|
G|-2-2-2--10-10-10\9--9--9----5-5-5--0-0--0-0-0-0-|
C|-2-2-2--------------------0-5-5-5--0-0--0-0-0-0-|

Play Riff 4 x2
Play Riff 2 x2
Play Riff 1 x4   "See through me, I beg of you..."
Play Riff 4 x2   "I just can't be around you..."

Riff 5 (clean)
D|------------------------------10-----10-----10-----10-----10---|
A|-10h12-13-12-10h12-10h12---------7h8----7h8----7h8----7h8----7-|
F|---------------------------------------------------------------|
C|---------------------------------------------------------------|
G|---------------------------------------------------------------|
C|---------------------------------------------------------------|

D|----------------------------------------------------------------------|
A|-10h12-13-12-10h12-10h12------10------10------10------10------10------|
F|---------------------------------9-------9-------9-------9-------9----|
C|-----------------------------------12------12------12------12------12-|
G|----------------------------------------------------------------------|
C|----------------------------------------------------------------------|

Play Riff 5 x4   "I tried to go my way, escaping from you..."

Riff 6 (transition)   "...the hate is growing inside..."
D|---------------------------------|
A|---------------------------------|
F|---------------------------------|
C|-5-5-5-5-5-5-5-5-7-7-7-7-7-7-7-7-|
G|-5-5-5-5-5-5-5-5-7-7-7-7-7-7-7-7-|
C|-5-5-5-5-5-5-5-5-7-7-7-7-7-7-7-7-|
   * * * * * * * * * * * * * * * *

Play Riff 3   "Inside! Inside! Inside! Inside!"

Riff 7
D|------------------------------------|
A|------------------------------------|
F|------------------------------------|
C|---------------------------0--0--0--|
G|---------------------------0--0--0--|
C|-2222-0-3-2-0-2222-0-3-2-0-0--0--0--|
   **** * * * * **** * * * * *  *  *

Play Riff 4 x2   "I just can't be around you..."

Riff 8 (ending)
D|-------------|
A|-------------|
F|-------------|
C|-0-0-0-0-0-0-|
G|-0-0-0-0-0-0-|
C|-0-0-0-0-0-0-|
   * * * * * *
            
Submit corrections

comments powered by Disqus
↑ Back to top | Scars Of Life Tabs for Placebo. Lyrics for acoustic guitar and electric guitar. Tablatures and chords are parodies/interpretations of the original songs. You may use it for private study, scholarship, research or language learning purposes only