» » »

Scars Of Life, Bullet With Your Name Tabs (ver.1)

Artists:  A B C D E F G H I J K L M N O P Q R S T U V W X Y Z # 

Bullet With Your Name Tabs (ver.1)

Scars Of Life Tabs
 Rating:
4/5 (14 votes)
Bullet With Your Name lessons Tabs too difficult? Try these video lessons and learn fast
                This is my favorite song by Scars of Life. This is also my first tab, so be nice!
Scars of Life: Bullet With Your Name

Tuning: C G C F A D (Drop C)

p: pull-off
pm: palm-mute


Ok, the song starts off with a little something like this.
Guitar 1 Intro
TIME CODE: (0:00 - 0:35)
D|-----------------------------------------|
A|-----------------------------------------|
F|-----------------------------------------|
C|-----------------------------------------|
G|----5p0---5p0-5-----3p0---3p0---3--------|
C|--0-------------5-0-----------3----------|

During the third repeat of Guitar one's intro, start doing this
and repeat throughout the verse.
Guitar 2 Intro
TIME CODE: (0:09 - 0:35)
D|-----------------------------8----|
A|-------10---5-------10---8--------|
F|--7-------------7-----------------|
C|----------------------------------|
G|----------------------------------|
C|----------------------------------|

*************************************************
* As we're sitting here staring each other down *
* you open up your mouth let your lies spew out *
* what are we doing here its wrong cant you see *
* you wanna leave me here, and forget about me. *
*************************************************

Guitar 1 Pre-Chorus
TIME CODE: (0:35 - 0:54)
D|-------------------------------------|
A|-------------------------------------|
F|--77-787-77-787-777-787-7-555-888----|4x
C|--77-787-77-787-777-787-7-555-888----|
G|--55-565-55-565-555-565-5-333-666----|
C|--55-565-55-565-555-565-5-333-666----|

********************************
* You look me, in my face      *
* Tell me Im, a disgrace       *
* you say that your the victim *
* I say your full of sh*t      *
********************************

Guitar 1 Chorus
TIME CODE: (0:54 - 1:11)   This is played each time after Guitar 1's Chorus
D|--0---5---3----3---5------|            D|--------------|
A|--3---3---5----3---3------|            A|--------------|
F|--2---2---2----0---0------|            F|--------------|
C|--0---0---0----0---0------|            C|--0001000302--|
G|--------------------------|            G|--0001000302--|
C|--------------------------|            C|--------------|
                                       

Guitar 2 Chorus
TIME CODE: (0:54 - 1:09)
D|-----------------------------8----|
A|-------10---5-------10---8--------|
F|--7-------------7-----------------|
C|----------------------------------|
G|----------------------------------|
C|----------------------------------|

************************************
* all the times you stuck me here  *
* and put me on my own             *
* I feel the same thats why        *
* I've got a bullet with your name *
************************************

Guitar 2 Verse
TIME CODE: (1:12 - 1:38)
D|-----------------------------------------|
A|-----------------------------------------|
F|-----------------------------------------|
C|-----------------------------------------|
G|----5po---5p0-5-----3p0---3p0---3--------|
C|--0-------------5-0-----------3----------|


TIME CODE: (1:12 - 1:38)
D|-----------------------------8----|
A|-------10---5-------10---8--------|
F|--7-------------7-----------------|
C|----------------------------------|
G|----------------------------------|
C|----------------------------------|

************************************************
* As were sitting here staring each other down *
* I remember how you used to kick me around    *
* look deep in my eyes come take all my pain   *
* I only have just one bullet with your name   *
************************************************

Guitar 1 Pre-Chorus
TIME CODE: (1:38 - 1:55)
D|-------------------------------------|
A|-------------------------------------|
F|--77-787-77-787-777-787-7-555-888----|4x
C|--77-787-77-787-777-787-7-555-888----|
G|--55-565-55-565-555-565-5-333-666----|
C|--55-565-55-565-555-565-5-333-666----|

********************************
* You look me, in my face      *
* Tell me Im, a disgrace       *
* you say that your the victim *
* I say your full of sh*t      *
********************************

Guitar 1 Chorus
TIME CODE: (1:56 - 2:13)        This is played each time after Guitar 1's Chorus
                               Guitar 2 is not playing his chorus during this part
D|--0---5---3----3---5------|                 D|--------------|
A|--3---3---5----3---3------|                 A|--------------|
F|--2---2---2----0---0------|                 F|--------------|
C|--0---0---0----0---0------|                 C|--0001000302--|
G|--------------------------|                 G|--0001000302--|
C|--------------------------|                 C|--------------|
                                       

Guitar 2 Chorus
TIME CODE: (1:56 - 2:11)
D|-----------------------------8----|
A|-------10---5-------10---8--------|
F|--7-------------7-----------------|
C|----------------------------------|
G|----------------------------------|
C|----------------------------------|

************************************
* all the times you stuck me here  *
* and put me on my own             *
* I feel the same thats why        *
* I've got a bullet with your name *
************************************

Guitar 1 Bridge - not sure if the is right 
TIME CODE: (2:14 - 2:22)
D|-----------------------|
A|-----------------------|
F|--777555888555881010---|4x
C|--777555888555881010---|
G|--55533366633366-8-8---|
C|--55533366633366-8-8---|
  pm...pm...pm...pm.

*********************
* GET THE f**k AWAY *
*********************

TIME CODE: (2:22 - 2:26)
D|---------------------|
A|---------------------|
F|--7-5-8-5-8-10-10----|2x
C|--7-5-8-5-8-10-10----|
G|--5-3-6-3-6--8--8----|
C|--5-3-6-3-6--8--8----|
  pm...pm...pm...

TIME CODE: (2:27 - 2:30
D|-----------------------|
A|-----------------------|
F|--777555888555881010---|2x
C|--777555888555881010---|
G|--55533366633366-8-8---|
C|--55533366633366-8-8---|

TIME CODE: (2:31 - 2:35)
D|---------------------|
A|---------------------|
F|--7-5-8-5-8-10-10----|2x
C|--7-5-8-5-8-10-10----|
G|--5-3-6-3-6--8--8----|
C|--5-3-6-3-6--8--8----|

TIME CODE: (2:35 - 2:40)
D|-----------------------|
A|-----------------------|
F|--777555888555881010---|2x
C|--777555888555881010---|
G|--55533366633366-8-8---|
C|--55533366633366-8-8---|

TIME CODE: (2:41 - 2:56)
D|--------------------------------------------------------------------|
A|--------------------------------------------------------------------|
F|--7-----------5-----------7-----------5------8-----7----------------|
C|--7-----------5-----------7-----------5------8-----7----------------|
G|--5-----------3-----------5-----------3------6-----5----------------|
C|--5-----------3-----------5-----------3------6-----5----------------|

D|---------------------------------------------|
A|---------------------------------------------|
F|--7-----------5-----------7-----------5------|
C|--7-----------5-----------7-----------5------|
G|--5-----------3-----------5-----------3------|
C|--5-----------3-----------5-----------3------|

*******************************
* Look deep in my eyes        *
* come take this pain from me *
* all I ask of you            *
* is to get away from me      *
*******************************

Guitar 1 Pre-Chorus
TIME CODE: (2:58 - 3:15)
D|-------------------------------------|
A|-------------------------------------|
F|--77-787-77-787-777-787-7-555-888----|4x
C|--77-787-77-787-777-787-7-555-888----|
G|--55-565-55-565-555-565-5-333-666----|
C|--55-565-55-565-555-565-5-333-666----|

********************************
* You look me, in my face      *
* Tell me Im, a disgrace       *
* you say that your the victim *
* I say your full of sh*t      *
********************************

Guitar 1 Chorus
TIME CODE: (3:16 - 3:52)   This is played each time after Guitar 1's Chorus
D|--0---5---3----3---5------|            D|--------------|
A|--3---3---5----3---3------|            A|--------------|
F|--2---2---2----0---0------|            F|--------------|
C|--0---0---0----0---0------|            C|--0001000302--|
G|--------------------------|            G|--0001000302--|
C|--------------------------|            C|--------------|
                                       

Guitar 2 Chorus
TIME CODE: (3:16 - 3:49)
D|-----------------------------8----|
A|-------10---5-------10---8--------|
F|--7-------------7-----------------|
C|----------------------------------|
G|----------------------------------|
C|----------------------------------|

************************************
* all the times you stuck me here  *
* and put me on my own             *
* I feel the same thats why        *
* I've got a bullet with your name *
************************************

Guitar 1 Pre-Chorus
TIME CODE: (3:53 - 4:08)
D|-------------------------------------|
A|-------------------------------------|
F|--77-787-77-787-777-787-7-555-888----|4x
C|--77-787-77-787-777-787-7-555-888----|
G|--55-565-55-565-555-565-5-333-666----|
C|--55-565-55-565-555-565-5-333-666----|
            
Submit corrections

comments powered by Disqus
↑ Back to top | Scars Of Life Tabs for Bullet With Your Name. Lyrics for acoustic guitar and electric guitar. Tablatures and chords are parodies/interpretations of the original songs. You may use it for private study, scholarship, research or language learning purposes only