» » »

Scars Of Life, Alone Inside Tabs (ver.1)

Artists:  A B C D E F G H I J K L M N O P Q R S T U V W X Y Z # 

Alone Inside Tabs (ver.1)

Scars Of Life Tabs
Rating:
0/5 (0 votes)
Alone Inside lessons Tabs too difficult? Try these video lessons and learn fast
                Tuning: Drop C (C G C F A D)

Intro Guitar 1
|---------------------------------------------|
|-----9---9---9---9---9-----9---9---9---9---9-|
|-5/7---7---7---7---7---5/7---7---7---7---7---|
|---------------------------------------------|
|---------------------------------------------|
|---------------------------------------------|

|-----------------------------------------|
|---7---7---7---7---7---5---5---5---5---5-|
|-5---5---5---5---5---3---3---3---3---3---|
|-----------------------------------------|
|-----------------------------------------|
|-----------------------------------------|

|-------|
|-------|
|-------|
|-------|
|-------|
|-14/---|

Main Riff
|----------------------------------------------|
|----------------------------------------------|
|----------------------------------------------|
|---------------------------------------5h7----|
|-0-0-0--------2-0------0-0-0--------5h7---6p5-|
|-0-0-0-020202-2-0-0202-0-0-0-020202-----------|
        ......     ....       ......

|------------------------------------------------|
|------------------------------------------------|
|------------------------------------------------|
|------------------------------------------------|
|-0-0-0--------2-0------0-0-0--------2-2-3-3-3-3-|
|-0-0-0-020202-2-0-0202-0-0-0-020202-0-0-1-1-1-1-|
        ......     ....       ......

Verse Palm-Muted
|-----------------------------------------------------|
|-----------------------------------------------------|
|-----------------------------------------------------|
|-----------------------------------------------------|
|-----------4-4-4-4-4-4-4-4-----------2-2-2-2-2-2-2-2-|
|-2222-2222-2-2-2-2-2-2-2-2-2222-2222-2-2-2-2-2-2-2-2-|

2nd Part of Verse Guitar 1
|-----------------|
|-----------------|
|-----------------|
|-----------------|
|-0222220222220222
|-0000000000000000

Chorus
|---------------------------------------------------------------------|
|---------------------------------------------------------------------|
|---------------------------------------------------------------------|
|-7-7-7-7-7-7-7-7-5-5-5-5-5-5-5-5-------------------------------------|
|-5-5-5-5-5-5-5-5-3-3-3-3-3-3-3-3-2-2-2424-2-2-2424-2-2-2424-2-2-2424-|
|---------------------------------2-2-2424-2-2-2424-2-2-2424-2-2-2424-|
                                  . . .... . . .... . . .... . . ....

I konw it's not near perfect but it's a start i'll tab out the rest of it later
            

comments powered by Disqus
↑ Back to top | Scars Of Life Tabs for Alone Inside. Lyrics for acoustic guitar and electric guitar. Tablatures and chords are parodies/interpretations of the original songs. You may use it for private study, scholarship, research or language learning purposes only