» » »

The Day After Tommorow Tabs (ver.1)

Artists:  A B C D E F G H I J K L M N O P Q R S T U V W X Y Z # 

The Day After Tommorow Tabs (ver.1)

Saybia
Rating:
4/5 (4 votes)

Hard to play? Try these video lessons and learn fast.
                Hello outthere... this is the greatest some made by Saybia... and the first song
I've tabbed all by myself :D:D I'm positive it's 100% correct.
The solo can be a little hard to understand, but it's the right solo,
and it sounds right with a lot of distortion! But enjoy... this tab took me some time!


Intro: Bm G A E x 4 Some kinda finger picking.... last time repeat E 3 times

Verse: |F#m A|D A|D F#m|G E| x4

Please tell me why do birds
sing when you're near me
sing when you're close to me
They say that I'm a fool
for loving you deeply
loving you secretly

Chorus: |Bm G|A E| x4

But I crash in my mind
whenever you are near
getting deaf, dumb and blind
just drowning in despair
I am lost in your flame
it's burning like the sun
and I call out your name
whenever you are gone

Verse again(same chords as before):

Please tell me why can't I
breathe when you're near me
breathe when you're close to me
I know, you know I'm lost
in loving you deeply
loving you secretly
secretly

Chorus

Brigde:
Em
Tomorrow        
                  Bm
I'll tell it all tomorrow
Bm      A          E  
or the day after tomorrow
Em                      Bm
I'm sure I'll tell you then

Solo (with heavy distortion) listen to the song for the rhytm:
E----------------------------------------------------------------------------
B--------------------------------------10-10--10-10-10--10--10-10--9-9-9-9-9-
G--9h11-11-11-11--9-9-9-9h11-11-9-11b--9---9---9--9--9--9---9--9---9-9-9-9-9-
D--9-9--9--9---9--9-9-9-9-9--9--9--------------------------------------------
A----------------------------------------------------------------------------
E----------------------------------------------------------------------------

E----------------------------------------------------------------------------
B-9-9-9--------------------------------------10-10-10-10-10-10-10--10--12-12-
G-9-9-9--9h11-11-11-11--9-9-9-9h11-11-9-11b—--9-9--9--9--9--9---9--9---------
D--------9-9--9--9---9--9-9-9-9-9--9--9--------------------------------9--9--
A----------------------------------------------------------------------------
E----------------------------------------------------------------------------

E---------------------|
B--12-12-12-12-12-12--|
G---------------------|
D--9--9--9--9--9--9---|
A---------------------|
E---------------------| x2 second time, play the 9-12 chord instead of 
the 9-9 chord

Chorus
Outro (same as intro) 

That's it.... hope you like it! Anything you'd like to say, corrections,
/BulletInTheHead
            
Hard to play? Try these video lessons and learn fast. | Correct




comments powered by Disqus
↑ Back to top | Tablatures and chords are parodies/interpretations of the original songs. You may use it for private study, scholarship, research or language learning purposes only