>
 >
Happy

Happy Guitar Tabs

Saving Jane - Happy chords, tabs, tablatures, lyrics

Guitar lessons | Add/correct | Request | Top 50 tabs Artists:  A B C D E F G H I J K L M N O P Q R S T U V W X Y Z 0-9

Happy Guitar Tabs – Saving Jane

CD, Sheet music, Poster

Do you like Happy? Share with your friends now
ChordsChords v2TabsUkulele
HAPPY---SAVING JANE
Here you go, this song is amazing;;;hope you like the tab...

IMPORTANT: the "~" means strum. listen to the song to figure out how you like to strum 
it...

Intro=drums

Verse 1:
E----------------------------------------------------------------|
B----------------------------------------------------------------|
G11~------------------------------------------------------------|
D11~--------------------------------------11~-------------------|
A9~---------------------------------------11~-------------------|
E------------------------------------------9~--------------------|
  Filling up my empty days with red wine   Wonder what you think of me?

E--------------------------------------------------------------|
B--------------------------------------------------------------|
G--------------------------------------------------------------|
D-9~------------------------------------11~--------------------|
A-9~------------------------------------11~--------------------|
E-7~------------------------------------9~---------------------|
  Lying in the grass alone and wasted   Nothing's how it used to be

Verse 2:
E-----------------------------------------------------------------|
B-----------------------------------------------------------------|
G11~-------------------------------------------------------------|
D11~-----------------------------------------11~-----------------|
A9~------------------------------------------11~-----------------|
E---------------------------------------------9~------------------|
  I wanna be the first to call and tell you   Yesterday I heard the news

E-------------------------------------------------------------|
B-------------------------------------------------------------|
G-------------------------------------------------------------|
D-9~------------------------------------11~-------------------|
A-9~------------------------------------11~-------------------|
E-7~------------------------------------9~--------------------|
  I hear you oughtta be congratulated   So I guess that's what I'll do

Chorus:
E------------------------------------------------|
B------------------------------------------------|
G--------11~-------------------------------------|
D--------11~------------------------11~----------|
A--------9~-------------------------11~----------|
E-----------------------------------9~-----------|
  I'm so happy for you      I could cry
E-------------------------------------------------------|
B-------------------------------------------------------|
G-------------------------------------------------------|
D-----------9~---------------------11~------------------|
A-----------9~---------------------11~------------------|
E-----------7~---------------------9~-------------------|
  Yeah, I'm so elated     Cross my heart and hope to die

E----------------------------------------------------|
B----------------------------------------------------|
G--------8~------------------------------------------|
D--------8~--------------11~-----------9~------------|
A--------6~--------------11~-----------9~------------|
E------------------------9~------------7~------------|
 I don't think about you every night   Before I close my eyes

E-----------------------------------------------------|
B-----------------------------------------------------|
G--------------------------------------11~------------|
D----------6~--------8---9-------------11~------------|
A----------6~--------8---9-------------9~-------------|
E----------4~--------6---7----------------------------|
    I'm so happy for you baby, I could cry.

Verse 3:
E-----------------------------------------------------------------|
B-----------------------------------------------------------------|
G11~-------------------------------------------------------------|
D11~---------------------------------------11~-------------------|
A9~----------------------------------------11~-------------------|
E-------------------------------------------9~--------------------|
  Listen to the sound of my head pounding   Wish that it was make-believe

E----------------------------------------------------------------|
B----------------------------------------------------------------|
G----------------------------------------------------------------|
D-9~-------------------------------------11~---------------------|
A-9~-------------------------------------11~---------------------|
E-7~-------------------------------------9~----------------------|
  Praying for the skies to open up and   Wash away your memory

Verse 4:
E----------------------------------------------------------------|
B----------------------------------------------------------------|
G11~------------------------------------------------------------|
D11~---------------------------------------11~------------------|
A9~----------------------------------------11~------------------|
E-------------------------------------------9~-------------------|
  I can walk around with a pretty face on   Even when I'm black and blue

E----------------------------------------------------------------|
B----------------------------------------------------------------|
G----------------------------------------------------------------|
D-9~---------------------------------------11~-------------------|
A-9~---------------------------------------11~-------------------|
E-7~---------------------------------------9~--------------------|
  What's the point in telling everybody    I'm not over you.


---CHORUS---

Bridge:
E----------------------------------------------------------|
B----------------------------------------------------------|
G-8~-------------------------------------------------------|
D-8~------------11~-------------9-9-9-8-3-3-9-9-9-8-3-3----|
A-6~------------11~-------------9-9-9-8-3-3-9-9-9-8-3-3----|
E---------------9~--------------7-7-7-6-2-2-7-7-7-6-2-2----|
  Cry about the love we used to have
E----------------------------------------------------------|
B----------------------------------------------------------|
G-8~-------------------------------------------------------|
D-8~---------------11~----------9-9-9-8-3-3-9-9-9-8-3-3----|
A-6~---------------11~----------9-9-9-8-3-3-9-9-9-8-3-3----|
E------------------9~-----------7-7-7-6-2-2-7-7-7-6-2-2----|
  Cry that I won't ever get you back

Riff:
E-------------------------------------------------|\-- /
B----------------------------------------------------- / \
G--11-11-11-11------------------------------------|  \ /x2
D--11-11-11-11-11-11-11-11-9-9-9-9-11-11-11-------| -- /
A--9--9--9--9--11-11-11-11-9-9-9-9-11-11-11-------|--- /
E--------------9--9--9--9--7-7-7-7-9--9--9------------ /

E----------------------------------------------------------------|
B----------------------------------------------------------------|
G-11~------------------------------------------------------------|
D11~--------------------------------------11~-------------------|
A9~---------------------------------------11~-------------------|
E------------------------------------------9~--------------------|
  Filling up my empty days with red wine   Wonder what you think of me?

End Chorus:
E----------------------------------------------|
B----------------------------------------------|
G--------11~-----------------------------------|
D--------11~------------------------11~--------|
A--------9~-------------------------11~--------|
E-----------------------------------9~---------|
  I'm so happy for you      I could cry
E----------------------------------------------|
B----------------------------------------------|
G----------------------------------------------|
D-----------9~---------------------11~---------|
A-----------9~---------------------11~---------|
E-----------7~---------------------9~----------|
  Yeah, I'm so elated     Cross my heart and hope to die
E----------------------------------------------|
B----------------------------------------------|
G------11~-------------------------------------|
D------11~----------------11~------------------|
A------9~-----------------11~------------------|
E-------------------------9~-------------------|
       I'm so happy for you
E----------------------------------------------|
B----------------------------------------------|
G----------------------------------------------|
D--------9~---------------11~------------------|
A--------9~---------------11~------------------|
E--------7~---------------9~-------------------|
         So, so happy for you
E----------------------------------------------------|
B----------------------------------------------------|
G--------8~------------------------------------------|
D--------8~--------------11~-----------9~------------|
A--------6~--------------11~-----------9~------------|
E------------------------9~------------7~------------|
 I don't think about you every night   Before I close my eyes

E------------------------------------------|
B------------------------------------------|
G-----------------------------------8------|
D-------6~--------8---9-------------8------|
A-------6~--------8---9-------------6------|
E-------4~--------6---7--------------------|
 I'm so happy for you baby, I could cry.

END

NOTE FROM THE WRITER OF THE TAB: "....I Wish every second of every day i could be Ally,
she has him and i get to watch the two of them happier than ever, but it does make me
that he is so happy, because i love him so much and all i want for him is to be really 
even if it means i get to miss him and he won't ever be mine again...."





Comments


Popular Saving Jane tabs & chords
Autumn & Me Chords
Girl Next Door Chords
Girl Next Door 2 Chords
Happy Chords
Imperfection Chords
Lost Chords
Come Down To Me Tabs
Come Down To Me Ukulele
Lost Ukulele
Ohio Ukulele


Song lyrics



↑ Back to top | Tablatures and chords are parodies/interpretations of the original songs. You may use it for private study, scholarship, research or language learning purposes only
© 2014 AZChords.com Contact us | Privacy policy | DMCA | Add/correct tabs | Request tabs | Top 50 tabs