>
 >
Girl Next Door

Girl Next Door Bass Tabs

Saving Jane - Girl Next Door chords, tabs, tablatures, lyrics

Guitar lessons | Add/correct | Request | Top 50 tabs Artists:  A B C D E F G H I J K L M N O P Q R S T U V W X Y Z 0-9

Girl Next Door Bass Tabs – Saving Jane

CD, Sheet music, Poster

Do you like Girl Next Door? Share with your friends now
Bass TabsChordsChords v2Chords v3Ukulele
GIRL NEXT DOOR-  <3 Saving Jane <3
~~~~~~~~~~~~~~~~~~~~~~~~~~~~
(I haven't got the 2nd verse variation just use the 1st and your imag.)

[*INTRO*]
(pick w/PM)
G|-------------|-------------|X2|
D|-------------|-------------|X2|
A|-5--5-4---5--|-5--5-4---0--|X2|
E|-------------|-------------|X2|

[*VERSE P1*]
(follow chord changes)
G|-----|-----|-----|-----|X2|
D|-----|-----|-----|-----|X2|
A|--5--|--2--|--2--|--0--|X2|
E|-----|-----|-----|-----|X2|


[*VERSE P2*]
G|-------------|X2|---------|X2|---------|X2|---------|X4|
D|-------------|X2|---------|X2|---------|X2|---------|X4|
A|-------------|X2|---------|X2|---------|X2|---------|X4|
E|-10-10-10-10-|X2|-7-7-7-7-|X2|-3-3-3-3-|X2|-0-0-0-0-|X4|


[*CHORUS*]
G|-------------|X2|---------|X2|---------|X2|---------|X2|
D|-------------|X2|---------|X2|---------|X2|---------|X2|
A|-------------|X2|---------|X2|---------|X2|---------|X2|
E|-10-10-10-10-|X2|-9-9-9-9-|X2|-7-7-7-7-|X2|-3-3-3-3-|X2|

G|-------------|X2|---------|X2|---------|X2|------------|
D|-------------|X2|---------|X2|---------|X2|------------|
A|-------------|X2|---------|X2|---------|X2|------------|
E|-10-10-10-10-|X2|-9-9-9-9-|X2|-7-7-7-7-|X2|--3*(ring)--|

[*PRE-BRIDGE*] (only after 2nd chorus!!)
G|---------|X2|---------|X2|---------|X2|---------|X4|
D|---------|X2|---------|X2|---------|X2|---------|X4|
A|---------|X2|---------|X2|---------|X2|---------|X4|
E|-9-9-9-9-|X2|-7-7-7-7-|X2|-9-9-9-9-|X2|-5-5-5-5-|X4|


[*BRIDGE*]
(syncopate)
G|--------------------|---------------|---------------|--------------|
D|--------------------|---------------|---------------|--------------|
A|--------------------|---------------|---------------|--------------|
E|-10-10--10--10--10--|-7-7--7--7--7--|-3-3--3--3--3--|-5-5--5--5--5-|
R| 1  e   +   +   +     2 e  +  +  +    3 e  +  +  +    4 e  +  +  +

G|--------------------|---------------|---------------|------------|
D|--------------------|---------------|---------------|------------|
A|--------------------|---------------|---------------|------------|
E|-10-10--10--10--10--|-7-7--7--7--7--|-3-3--3--3--3--|---5*ring---|
R| 1  e   +   +   +     2 e  +  +  +    3 e  +  +  +    





Comments


Popular Saving Jane tabs & chords
Autumn And Me Chords
Come Down To Me Chords
Girl Next Door Chords
Girl Next Door 1 Chords
Grace Chords
Happy Chords
Happy 1 Chords
Come Down To Me Tabs
Girl Next Door Ukulele
Ohio Ukulele


Song lyrics



↑ Back to top | Tablatures and chords are parodies/interpretations of the original songs. You may use it for private study, scholarship, research or language learning purposes only
© 2014 AZChords.com Contact us | Privacy policy | DMCA | Add/correct tabs | Request tabs | Top 50 tabs