>
 >
Small Talk

Small Talk Guitar Tabs

Saving Aimee - Small Talk chords, tabs, tablatures, lyrics

Guitar lessons | Add/correct | Request | Top 50 tabs Artists:  A B C D E F G H I J K L M N O P Q R S T U V W X Y Z 0-9

Small Talk Guitar Tabs – Saving Aimee

CD, Sheet music, Poster

Do you like Small Talk? Share with your friends now
TabsTabs v2
-------------------------------------------------------------------------------
-------------------------------------------------------------------------------

Tuning:Standard

Sorry if this tab is  a tad confusing, but yeah, you can understand it, if you have any 
at all, which i hope you do:) yayyy!
Intro repeat many times
e|----------------------------------------------------------------------------------|
B|----------------------------------------------------------------------------------|
G|-9-9-9-9--9-----------------------------------------------------------------------|
D|-x-x-x-x--9-----------------------------------------------------------------------|
A|-7-7-7-7--7-----------------------------------------------------------------------|
E|----------------------------------------------------------------------------------|
   x x x x
Verse (rythm) not sure of lead
e|----------------------------------|
B|----------------------------------|
G|-9-9-9----------------------------|
D|-9-9-9---9-9-9---11-11-11--7-7-7--|
A|-7-7-7---9-9-9---11-11-11--7-7-7--|
E|---------7-7-7---9--9--9---5-5-5--|
Chorus (lead guitar) rythm is the same without mini solo thing)
e|--------------------------------------------------------------------------------------|
B|--------------------------------------------------------------------------------------|
G|-9-----------------11-(bend)----------------------------------------------------------|
D|-9---9--------9h11-------------11----7------------------------------------------------|
A|-7---9---9h11------------------11----7------------------------------------------------|
E|-----7-------------------------9-----5------------------------------------------------|

some bits in solo ( cant play it all, need help with parts)
e|--------------------------|
B|--12-(tremelo)--9--7---5--|
G|--------------------------|
D|--------------------------|
A|--------------------------|
E|--------------------------|
Tapping Bit (something like this) many times
e|---------------------------------------------------------------------------------|
B|----12---3-5---------------------------------------------------------------------|
G|---------------------------------------------------------------------------------|
D|---------------------------------------------------------------------------------|
A|---------------------------------------------------------------------------------|
E|---------------------------------------------------------------------------------|
      t    t t
 Build UP ( after reggae part )
e|-----------------------------------|
B|-------------------------------17--|
G|----12-11-13-15-11-13-16-11-13-----|
D|-----------------------------------|
A|-----------------------------------|
E|-----------------------------------|
reggae part
e|---7-------------------------------------------------------------------------------|
B|---9--7--9---12--------------------------------------------------------------------|
G|---9--9--11--14--------------------------------------------------------------------|
D|------9--11--14--------------------------------------------------------------------|
A|-----------------------------------------------------------------------------------|
E|-----------------------------------------------------------------------------------|
End note
e|-------------------------------------------------------------------------------|
B|----17-------------------------------------------------------------------------|
G|-------------------------------------------------------------------------------|
D|-------------------------------------------------------------------------------|
A|-------------------------------------------------------------------------------|
E|-------------------------------------------------------------------------------|

Order : Intro ( many times)
Verse
Intro
Chorus
Intro
Nothing
Verse
Intro
Chorus
solo parts
reggae bit
build up
Chorus
Build up
End

| /  slide up
| \  slide down
| h  hammer-on
| p  pull-off
| ~  vibrato
| +  harmonic
| x  Mute note
===============================================================================





Comments


Popular Saving Aimee tabs & chords
Were The Good Guys Chords
Down For The Count Tabs
High Fives All Round Tabs
Hold On Tabs
Level On Up Tabs
Small Talk 2 Tabs
Were The Good Guys Ukulele


Song lyrics



↑ Back to top | Tablatures and chords are parodies/interpretations of the original songs. You may use it for private study, scholarship, research or language learning purposes only
© 2014 AZChords.com Contact us | Privacy policy | DMCA | Add/correct tabs | Request tabs | Top 50 tabs