» » »

Saving Aimee, Hold On Tabs (ver.1)

Artists:  A B C D E F G H I J K L M N O P Q R S T U V W X Y Z # 

Hold On Tabs (ver.1)

Saving Aimee Tabs
 Rating:
4.2/5 (5 votes)
Hold On lessons Tabs too difficult? Try these video lessons and learn fast
                
guitar 1

e|-------------------|------------------|------------------|---------------------------|
B|-8-7---10-8-7---7--|-8-7---10-8-7---7-|-8-7---10-8-7---7-|-8-7---10-8-7---7----------|
G|-----7--------7----|-----9--------9---|------------------|---------------------------|
D|-------------------|------------------|-----9--------9---|-----5--------5------------|
A|-------------------|------------------|------------------|---------------------------|
E|-------------------|------------------|------------------|---------------------------|

guitar 2

e|-------------------|------------------|------------------|---------------------------|
B|-------------------|------------------|------------------|---------------------------|
G|--7---7---7---7----|------------------|--4---4---4---4---|---------------------------|
D|--7---7---7---7----|--7---7---7---7---|--4---4---4---4---|--5---5---5---5------------|
A|--5---5---5---5----|--7---7---7---7---|--2---2---2---2---|--5---5---5---5------------|
E|-------------------|--5---5---5---5---|------------------|--3---3---3---3------------|


slight bit of palm muting (starts 1:06)

guitar 2
                                         (1:12)
e|-------------------------------------------------------------------------------------|
B|-------------------------------------------------------------------------------------|
G|--77777777-77777777-77777777-77777777-|-77777777-77777777-77777777-66666666----------|
D|--77777777-77777777-77777777-77777777-|-77777777-77777777-77777777-77777777----------|
A|--55555555-55555555-55555555-55555555-|-55555555-55555555-55555555-44444444----------|
E|-------------------------------------------------------------------------------------|
    ........ ........ ........ ........   ........ ........ ........ ........


guitar 1

e|-------------------------------------------------------------------------------------|
B|-------------------------------------------------------------------------------------|
G|--77777777---66666666---77777777---99999999---77777777---66666666---77777777--77-77--|
D|-------------------------------------------------------------------------------------|
A|-------------------------------------------------------------------------------------|
E|-------------------------------------------------------------------------------------|

guitar 2

e|-------------------------------------------------------------------------------------|
B|-------------------------------------------------------------------------------------|
G|--77777777---66666666---44444444---22222222---77777777---66666666---77777777--77-77--|
D|--77777777---77777777---44444444---22222222---77777777---77777777---77777777--77-77--|
A|--55555555---44444444---22222222---00000000---55555555---44444444---55555555--55-55--|
E|-------------------------------------------------------------------------------------|


guitar 1

e|-------------------------------------------------------------------------------------|
B|-------------------------------------------------------------------------------------|
G|--7-7-7-7---6-6-6-6---11111111-12121212----------------------------------------------|
D|--7-7-7-7---7-7-7-7---11111111-12121212----------------------------------------------|
A|--5-5-5-5---4-4-4-4---9-9-9-9--10101010----------------------------------------------|
E|-------------------------------------------------------------------------------------|

e|-------------------------------------------------------------------------------------|
B|--10-8-7-----------10-8-7------------------------------------------------------------|
G|---------9-9/11-12--------9-9/11-12--------------------------------------------------|
D|-------------------------------------------------------------------------------------|
A|-------------------------------------------------------------------------------------|
E|-------------------------------------------------------------------------------------|

guitar 2

e|-------------------------------------------------------------------------------------|
B|-------------------------------------------------------------------------------------|
G|--7-7-7-7-------------4-4-4-4--------------------------------------------------------|
D|--7-7-7-7---7-7-7-7---4-4-4-4--5-5-5-5-----------------------------------------------|
A|--5-5-5-5---7-7-7-7---2-2-2-2--5-5-5-5-----------------------------------------------|
E|------------5-5-5-5------------3-3-3-3-----------------------------------------------|

e|-------------------------------------------------------------------------------------|
B|-------------------------------------------------------------------------------------|
G|--7-7-7-7-------------4-4-4-4--------------------------------------------------------|
D|--7-7-7-7---7-7-7-7---4-4-4-4--5-5-5-5-----------------------------------------------|
A|--5-5-5-5---7-7-7-7---2-2-2-2--5-5-5-5-----------------------------------------------|
E|------------5-5-5-5------------3-3-3-3-----------------------------------------------|

guitar 1

  (3:28)
e|-------------------------------------------------------------------------------------|
B|-------------------------------------------------------------------------------------|
G|------7-6---7/9-------7-6---4-6------------------------------------------------------|
D|----7-----7---------7-----7-----7----------------------------------------------------|
A|-------------------------------------------------------------------------------------|
E|-------------------------------------------------------------------------------------|

e|-------------------------------------------------------------------------------------|
B|-------------------------------------------------------------------------------------|
G|-------------------------------------------------------------------------------------|
D|-------------------------------------------------------------------------------------|
A|-------------------------------------------------------------------------------------|
E|-------------------------------------------------------------------------------------|












(the song, when played live, misses out the intro on the recording, so some things might 
different
 to what you know... do what you think sounds right!)


Chorus

Hold on we'll go our separate ways

Hold on we'll go our separate ways

Hold on we'll go our separate ways

Verse 1

We're not talking, your silent eyes

Look at me please, we'll be alright

And I'll drop to my knees, hold you tight

Kiss you forever and I'll tell you forever

I love you I said, that night was yours

You said it back, I knew it for sure

But it died in you in a second and I knew

So now write back cos this letters for you

Breakdown biatch

Perfectly said but you never said a word

The silence will be broken by the thousand sounds I heard

I said I've done enough I should of done more

I'll quit crying my heart out if I hear goodbye that's all


I said it's perfectly phrased but you never wrote a word

The silence will be broken by the hand that wrote this verse

I said I've done enough I should of done more

I'll quit crying my heart out if I hear good bye that's all

Bridge


(Please) Don't leave now

Don't leave now

Don't leave now

Don't leave now
            
Submit corrections

comments powered by Disqus
↑ Back to top | Saving Aimee Tabs for Hold On. Lyrics for acoustic guitar and electric guitar. Tablatures and chords are parodies/interpretations of the original songs. You may use it for private study, scholarship, research or language learning purposes only