>
 >
High Fives All Round

High Fives All Round Guitar Tabs

Saving Aimee - High Fives All Round chords, tabs, tablatures, lyrics

Guitar lessons | Add/correct | Request | Top 50 tabs Artists:  A B C D E F G H I J K L M N O P Q R S T U V W X Y Z 0-9

High Fives All Round Guitar Tabs – Saving Aimee

CD, Sheet music, Poster

Do you like High Fives All Round? Share with your friends now
Tabs

this song is dedicated to my good friends aidan and isaac...
high fives all round to them gimps

bridge

guitar 1

e|---------------------------------------------------------------------------|
B|---------------------------------------------------------------------------|
G|-------9-7-6------9-7-6-----9-7-6-----9-7-6---(-2- on 2nd time)------------|
D|---7-7----------------------------0-0--------------------------------------| x2
A|--------------7-7-------9-9------------------------------------------------|
D|---------------------------------------------------------------------------|

e|--------------------------------------------------------------------------|
B|--------------------------------------------------------------------------|
G|----9-7-6-----------------------------------------------------------------|
D|----------7-9-9/11-9-7----------------------------------------------------|
A|--------------------------------------------------------------------------|
D|--------------------------------------------------------------------------|

guitar 2

e|--------------------------------------------------------------------------|
B|--------------------------------------------------------------------------|
G|--------------------------------------------------------------------------|
D|---7-7-7-7-7-7-7-7--4-4-4-4-0-0-0-0---------------------------------------|
A|---7-7-7-7-7-7-7-7--4-4-4-4-0-0-0-0---------------------------------------|
D|---7-7-7-7-7-7-7-7--4-4-4-4-0-0-0-0---------------------------------------|

verse and chorus

guitar 1

e|--------------------------------------------------------------------------|
B|---1010101010101010-7-7-7-7-3-3-3-3--(15-15-15-15                      3)-|
G|---9-9-9-9-9-9-9-9--6-6-6-6-2-2-2-2--(14-14-14-14 play this instead of 2)-|
D|---7-7-7-7-7-7-7-7--4-4-4-4-0-0-0-0--(12-12-12-12                      0)-|
A|--------------------------------------------------------------------------|
D|--------------------------------------------------------------------------|

e|--------------------------------------------------------------------------|
B|--------------------------------------------------------------------------|
G|--------9-7h6-----9-7h6-----9-7h6-----9-7h6-------------------------------|
D|----7-7---------------------------0-0-------------------------------------|
A|--------------7-7-------9-9-----------------------------------------------|
D|--------------------------------------------------------------------------|

guitar 2

e|--------------------------------------------------------------------------|
B|--------------------------------------------------------------------------|
G|--------------------------------------------------------------------------|
D|---7-7-7-7-7-7-7-7--4-4-4-4-0-0-0-0---------------------------------------|
A|---7-7-7-7-7-7-7-7--4-4-4-4-0-0-0-0---------------------------------------|
D|---7-7-7-7-7-7-7-7--4-4-4-4-0-0-0-0---------------------------------------|

breakdown - a)

guitar 1

e|-----(0)------------------------------------------------------------------|
B|---10-5-10/12-14h15-14-12-10----------------------------------------------|
G|-----(9)------------------------------------------------------------------|
D|--------------------------------------------------------------------------|
A|--------------------------------------------------------------------------|
D|--------------------------------------------------------------------------|

guitar 2

e|--------------------------------------------------------------------------|
B|--------------------------------------------------------------------------|
G|--------------------6--------6--------6--------6--------------------------|
D|---7~~~~------------7--------7--------7--------7--------------------------|
A|---7~~~~------------7--------7--------7--------7--------------------------|
D|---7~~~~------------7--------7--------7--------7--------------------------|

e|--------------------------------------------------------------------------|
B|--------------------------------------------------------------------------|
G|--------------------------------------------------------------------------|
D|---77777777777777777777777777777777---------------------------------------|
A|---77777777777777777777777777777777---------------------------------------|
D|---77777777777777777777777777777777---------------------------------------|

breakdown - b)

guitar 1


e|--12-10-9-----12-10-9-----12-10-9-----------------------------------------|
B|-----------12----------10---------12-12/14-14-10~~~~~~--------------------|
G|--------------------------------------------------------------------------|
D|--------------------------------------------------------------------------|
A|--------------------------------------------------------------------------|
D|--------------------------------------------------------------------------|

OR

e|--------------------------------------------------------------------------|
B|--------------------------------------------------------------------------|
G|---9--7--6-----9--7--6-----9--7--6----------------------------------------|
D|------------9-----------7-----------9--9/11-11--7-------------------------|
A|--------------------------------------------------------------------------|
D|--------------------------------------------------------------------------|

guitar 2

e|--------------------------------------------------------------------------|
B|--------------------------------------------------------------------------|
G|--------------------------------------------------------------------------|
D|--------------------------------------------------------------------------|
A|---7--5--4--2--7--5--4--0--7--5--4--2--2--4--4--0~~~~~~~------------------|
D|--------------------------------------------------------------------------|







Intro -

WOAH'S!!!!

Bridge -

We know we can make it despite high eyes
We're boys so we hate it when we have to comply
I say it now I thank you for the memories
Of you I won't make an enemy

1st Verse -

This is my time and I
I feel so alive and I know
This may sound rude and lack common sense
Then again there is no significance
I won't stand between you
I just want to be seen by the few
This may sound strange and seem quite intense
I'll brainstorm just to give you a sense

2nd Verse -

This is our time and I
I feel so content I'm surprised
Conform to others views of this life
Discard your own embrace what is right
This world spins far to fast
Changes they never last
Now that we've done what's done to impress
I've joined your trend so go tell the rest

Chorus -

No ones going out not now
High fives all round
So place your palms on the ground
The things we do to get around
No ones going past us now
On our second time round
Pointless as it sounds
The things we do to get around

Breakdown - a)

Every question we know holds every answer we hide
Every clue that we make will lead us right here tonight
In every clue is a dream and I'll be waiting to see
How every arrow on this road will lead directly to me

          - b)

"When my ideas fail in the end
I won't conform I wont pretend" (times 2)





Comments


Popular Saving Aimee tabs & chords
Were The Good Guys Chords
Down For The Count Tabs
Hold On Tabs
Level On Up Tabs
Small Talk Tabs
Small Talk 2 Tabs
Were The Good Guys Ukulele


Song lyrics



↑ Back to top | Tablatures and chords are parodies/interpretations of the original songs. You may use it for private study, scholarship, research or language learning purposes only
© 2014 AZChords.com Contact us | Privacy policy | DMCA | Add/correct tabs | Request tabs | Top 50 tabs