» » »

Saving Aimee, Down For The Count Tabs (ver.1)

Artists:  A B C D E F G H I J K L M N O P Q R S T U V W X Y Z # 

Down For The Count Tabs (ver.1)

Saving Aimee Tabs
 Rating:
4.2/5 (5 votes)
Down For The Count lessons Tabs too difficult? Try these video lessons and learn fast
                
Intro

guitar 1

     D         F#m   B
e|---------------------------------------------------------------------------------------|
B|---7-7-7-7---10-10-12-12---------------------------------------------------------------|
G|---7-7-7-7---11-11-11-11---------------------------------------------------------------| x4
D|---7-7-7-7---11-11-9--9----------------------------------------------------------------|
A|---5-5-5-5---9--9----------------------------------------------------------------------|
E|---------------------------------------------------------------------------------------|

e|---------------------------------------------------------------------------------------|
B|---------------------------------------------------------------------------------------|
G|---7-7-7-7-4-4-------------------------------------------------------------------------| x4
D|---7-7-7-7-4-4-5-5---------------------------------------------------------------------|
A|---5-5-5-5-2-2-5-5---------------------------------------------------------------------|
E|---------------3-3---------------------------------------------------------------------|

guitar 2 (start when guitar 1 starts 2nd part of intro)

e|--------------------------------------------------------------------------------------------|
B|--------------------------------------------------------------------------------------------|
G|--------------------------------------------------------------------------------------------|
D|-14141414-1212111211-7-7/14141414-1212111211-7-7/141614-1212111211-7-7/141614-1212111211-7--| x4
A|--------------------------------------------------------------------------------------------|
E|--------------------------------------------------------------------------------------------|

Verse

guitar 2

e|---------------------------------------------------------------------------------------|
B|---7----7----3-------------------------------------------------------------------------|
G|---7----7----4----4--------------------------------------------------------------------|
D|---7----7----4----5--------------------------------------------------------------------|
A|---5----5----2----5--------------------------------------------------------------------|
E|------------------3--------------------------------------------------------------------|

guitar 1

e|---------------------------------------------------------------------------------------|
B|---7----7----3-------------------------------------------------------------------------|
G|---7----7----4-------------------------------------------------------------------------|
D|---7----7----4----5-4-------4----------------------------------------------------------|
A|---5----5----2--------7-5-7---7-5------------------------------------------------------|
E|---------------------------------------------------------------------------------------|

guitars 1 & 2

e|---------------------------------------------------------------------------------------|
B|-----------------------3---------------------------------------------------------------|
G|---7---------6---------4-----------4----4----------------------------------------------|
D|---7---------7---------4-----------5----5----------------------------------------------|
A|---5---------7---------2-----------5----5----------------------------------------------|
E|-------------5---------------------3----3----------------------------------------------|

Chorus (1:00)

guitar 1

e|-----------------------------------------------------------------------------------------|
B|---7-7-7-7-7-7-7-7------------------------------3-3-3-3-3-3-3-3--------------------------|
G|---7-7-7-7-7-7-7-7------6-6-6-6-6-6-6-6---------4-4-4-4-4-4-4-4-----4-4------------------|
D|---7-7-7-7-7-7-7-7------7-7-7-7-7-7-7-7---------4-4-4-4-4-4-4-4-----5-5--5-4------4------|
A|---5-5-5-5-5-5-5-5------7-7-7-7-7-7-7-7---------2-2-2-2-2-2-2-2-----5-5-----7-5-7---7-5--|
E|------------------------5-5-5-5-5-5-5-5-----------------------------3-3------------------|

guitar 2

e|--------------------------------------------------------------------------------------------|
B|--------------------------------------------------------------------------------------------|
G|--------------------------------------------------------------------------------------------|
D|-14141414-1212111211-7-7/14141414-1212111211-7-7/141614-1212111211-7-7/141614-1212111211-7--|
A|--------------------------------------------------------------------------------------------|
E|--------------------------------------------------------------------------------------------|

solo (3:09)

guitar 2

e|---------------------------------------------------------------------------------------|
B|---12-12-12-12-12-----9-----12-12-12-12-12------------12-12-12-12-12------9------------|
G|-----------------9-11----------------------9-11-9--------------------9-11--------------|
D|---------------------------------------------------------------------------------------|
A|---------------------------------------------------------------------------------------|
E|---------------------------------------------------------------------------------------|

guiatr 1

e|---------------------------------------------------------------------------------------|
B|----9-9-9-9-9-9-9-9-9--------------------------------5-5-5-5-5-5-5-5-------------------|
G|----9-9-9-9-9-9-9-9-9------8-8-8-8-8-8-8-8-----------6-6-6-6-6-6-6-6-------------------|
D|----9-9-9-9-9-9-9-9-9------9-9-9-9-9-9-9-9-----------6-6-6-6-6-6-6-6-------------------|
A|----7-7-7-7-7-7-7-7-7------9-9-9-9-9-9-9-9-----------4-4-4-4-4-4-4-4-------------------|
E|---------------------------7-7-7-7-7-7-7-7---------------------------------------------|

guitar 2

e|--12-9---------------------------------------------------------------------------------|
B|-------12-9----------------------------------------------------------------------------|
G|------------11-9------------------(very fast tremolo picking)--------------------------|
D|-----------------11-9------------------------------------------------------------------|
A|----------------------11-9-7~~---------------------------------------------------------|
E|---------------------------------------------------------------------------------------|

guitar 1

e|---------------------------------------------------------------------------------------|
B|---------------------------------------------------------------------------------------|
G|---6-6-6-6-6-6-6-6---------------------------------------------------------------------|
D|---7-7-7-7-7-7-7-7---------------------------------------------------------------------|
A|---7-7-7-7-7-7-7-7---------------------------------------------------------------------|
E|---5-5-5-5-5-5-5-5---------------------------------------------------------------------|

(3:21)

guitar 2

e|---19-19-19-19-12-14-16---19-19-19-19-12-14-12---19-19-19-19-12-14-16------------------|
B|---------------------------------------------------------------------------------------|
G|---------------------------------------------------------------------------------------|
D|---------------------------------------------------------------------------------------|
A|---------------------------------------------------------------------------------------|
E|---------------------------------------------------------------------------------------|

guitar 1

e|---------------------------------------------------------------------------------------|
B|---9-9-9-9-9-9-9-9--------------------------------5-5-5-5-5-5-5-5----------------------|
G|---9-9-9-9-9-9-9-9--------8-8-8-8-8-8-8-8---------6-6-6-6-6-6-6-6----------------------|
D|---9-9-9-9-9-9-9-9--------9-9-9-9-9-9-9-9---------6-6-6-6-6-6-6-6----------------------|
A|---7-7-7-7-7-7-7-7--------9-9-9-9-9-9-9-9---------4-4-4-4-4-4-4-4----------------------|
E|--------------------------7-7-7-7-7-7-7-7----------------------------------------------|

guitar 2

e|---17-16-14-17-16-14-17-16-14-17-16-14-17-16-14-12-------------------------------------|
B|---------------------------------------------------------------------------------------|
G|---------------------------------------------------------------------------------------|
D|---------------------------------------------------------------------------------------|
A|---------------------------------------------------------------------------------------|
E|---------------------------------------------------------------------------------------|

guitar 1

e|---------------------------------------------------------------------------------------|
B|---------------------------------------------------------------------------------------|
G|---6-6-6-6-6-6-6-6-6-6-----------------------------------------------------------------|
D|---7-7-7-7-7-7-7-7-7-7-----------------------------------------------------------------|
A|---7-7-7-7-7-7-7-7-7-7-----------------------------------------------------------------|
E|---5-5-5-5-5-5-5-5-5-5-----------------------------------------------------------------|

guitar 1

e|---------------------------------------------------------------------------------------|
B|-----12--12--12--10--10-9-10-9-----------12--14--12--10--10-9-10-9---------------------|
G|---9---9---9----9---9----------9--(x2)-9---9----9--9----9----------9--(x2)--9-------E--|
D|----------------------------------------------------------------------------9-------N--|
A|----------------------------------------------------------------------------7-------D--|
E|---------------------------------------------------------------------------------------|

guitar 2

e|---------------------------------------------------------------------------------------|
B|---------------------------------------------------------------------------------------|
G|---9~~~---------------------------(x2)-9~~~--(x1)---7-6-------6-------------9-------E--|
D|---9~~~--------------------------------9~~~-------------9-7-9---9-7---------9-------N--|
A|---7~~~--------------------------------7~~~---------------------------------7-------D--|
E|---------------------------------------------------------------------------------------|
            
Submit corrections

comments powered by Disqus
↑ Back to top | Saving Aimee Tabs for Down For The Count. Lyrics for acoustic guitar and electric guitar. Tablatures and chords are parodies/interpretations of the original songs. You may use it for private study, scholarship, research or language learning purposes only