>
 >
Drowning Face Down 3

Drowning Face Down 3 Guitar Tabs

Saving Abel - Drowning Face Down 3 chords, tabs, tablatures, lyrics

Guitar lessons | Add/correct | Request | Top 50 tabs Artists:  A B C D E F G H I J K L M N O P Q R S T U V W X Y Z 0-9

Drowning Face Down 3 Guitar Tabs – Saving Abel

CD, Sheet music, Poster

Do you like Drowning Face Down 3? Share with your friends now
Tabs
-------------------------------------------------------------------------------
                        Drowning (Face Down) - Saving Abel
-------------------------------------------------------------------------------

Tuning: Standard
This is how I play it, it's prolly not 100% perfect but really close. you'll 
have to figure out the strum pattern but here are the notes

INTRO
                                                               pm----
e|---------------------2-------------------------------2-------------------|
B|---------------------3----2--------------------------3----2--------------|
G|---------------------2----2---5-----------------0h2--2----2--------------|
D|---------------------0----2---5---------------0------0----2---------3--5-|
A|--3--332---332------------0---3---------0h2-3-------------0--333222-3--5-|
E|--------1-----3-----------------0h1h2-3-----------------------------1--3-|


VERSES

e|--2----------3-|
B|--3-----1----3-|
G|--2-----0----0-|
D|--0-----2----0-|   x4
A|--------3----2-|
E|-------------3-|

PRECHORUS

e|-----------------3-|
B|------------1----3-|
G|---3--------0----0-|
D|---3---3----2----0-|  x2
A|---1---3----3----2-|
E|-------1---------3-|

CHORUS
                                            pm-----
e|--2-----------------------------2-----------------------|
B|--3----2------------------------3-----2-----------------|
G|--2----2---5---------------0h2--2-----2-----------------|
D|--0----2---5---5---------0------0-----2-----------3---5-| x2
A|-------0---3---5---0h2-3--------------0----333222-3---5-|
E|---------------3----------------------------------1---3-|

BRIDGE

e|---2-----------------2-----------------|
B|---3----2------------3---2-------------|
G|---2----2---5--------2---2---5---------|
D|---0----2---5---5----0---2---5---3---5-|  x2
A|--------0---3---5--------0---3---3---5-|
E|----------------3----------------1---3-|

pm= pm
h = hammer on

didnt have time to learn the lead yet so didnt post it but hope this helps


===============================================================================





Comments


Popular Saving Abel tabs & chords
Addicted Bass Tabs
Addicted Chords
18 Days 1 Tabs
Addicted Tabs
Drowning Face Down 2 Tabs
Michael Jacksons Jacket Intro Tabs
Running From You Tabs
Sailed Away Intro Tabs
Sex Is Good Tabs
She Got Over Me Ukulele


Song lyrics



↑ Back to top | Tablatures and chords are parodies/interpretations of the original songs. You may use it for private study, scholarship, research or language learning purposes only
© 2014 AZChords.com Contact us | Privacy policy | DMCA | Add/correct tabs | Request tabs | Top 50 tabs