>
 >
Drowning Face Down 2

Drowning Face Down 2 Guitar Tabs

Saving Abel - Drowning Face Down 2 chords, tabs, tablatures, lyrics

Guitar lessons | Add/correct | Request | Top 50 tabs Artists:  A B C D E F G H I J K L M N O P Q R S T U V W X Y Z 0-9

Drowning Face Down 2 Guitar Tabs – Saving Abel

CD, Sheet music, Poster

Do you like Drowning Face Down 2? Share with your friends now
TabsTabs v2Ukulele
e|---------------------------------------------------------------------------|
B|---------------------------------------------------------------------------|
G|-\19~--19~--19p17------16~------16--16h17~--16h17p16-----------------------|
D|-------------------19-------19------------------------19--17--16h17p16-----|
A|------------------------------------------------------------------------17-|
E|---------------------------------------------------------------------------|

e|---------------------------12----------------------------------------------|
B|-----------------------12------12--15~--15b17r15--13--17~--15p13h15--18~---|
G|----------------14b16------------------------------------------------------|
D|-------\12--12-------------------------------------------------------------|
A|--17/----------------------------------------------------------------------|
E|---------------------------------------------------------------------------|

e|---------------------------------------------------------------------------|
B|--15p13h15--17~--15p13h15--18~--15p13h15--17~--15p13--17b18-17b18r17--15---|
G|---------------------------------------------------------------------------|
D|---------------------------------------------------------------------------|
A|---------------------------------------------------------------------------|
E|---------------------------------------------------------------------------|

e|------------------------------------15b17--15b17--15b17r15--13--15--13~----|
B|------15--17--15------15/-------15-----------------------------------------|
G|--16--------------16-------\16---------------------------------------------|
D|---------------------------------------------------------------------------|
A|---------------------------------------------------------------------------|
E|---------------------------------------------------------------------------|

e|---------------------------------------------------------------------------|
B|-15p13h15--18--15p13h15--18--15p13h15--18--15p13h15--18--15--13--15/--\15/-|
G|---------------------------------------------------------------------------|
D|---------------------------------------------------------------------------|
A|---------------------------------------------------------------------------|
E|---------------------------------------------------------------------------|

e|---------------------------------------------------------------------------|
B|--\15/--21b23--(23)~-------------------------------------------------------|
G|---------------------------------------------------------------------------|
D|---------------------------------------------------------------------------|
A|---------------------------------------------------------------------------|
E|---------------------------------------------------------------------------|

This is my first submission of a transcription. It's not perfect, but it's how I 
play it. Make it your own.





Comments


Popular Saving Abel tabs & chords
Beautiful Day Chords
Sailed Away Chords
Addicted 3 Tabs
Beautiful You Intro Tabs
Drowning (Face Down) 2 Tabs
New Tattoo Tabs
Running From You Tabs
After All Ukulele
Beautiful Day Ukulele
She Got Over Me Ukulele


Song lyrics



↑ Back to top | Tablatures and chords are parodies/interpretations of the original songs. You may use it for private study, scholarship, research or language learning purposes only
© 2014 AZChords.com Contact us | Privacy policy | DMCA | Add/correct tabs | Request tabs | Top 50 tabs