» » »

What Went Wrong Tabs (ver.2)

Artists:  A B C D E F G H I J K L M N O P Q R S T U V W X Y Z # 

What Went Wrong Tabs (ver.2)

Saves The Day
Rating:
0/5 (0 votes)

Hard to play? Try these video lessons and learn fast.
                Into/ verse
--------------------------2--2---0----------------------------------0---------------------
------2--2---0---2--0-----3--3---0--------------------------------0---0-------------------
------3--3---3---3--3-----------------2--2--2---1---1--0--0----0-------------------------
--------------------------------------3--3--3-- 2---2--0--1-------------------------  
play 2 times for into then verse begins 



“
…all, sang a song in sorrw
---------5-------5-------------------------------------------------------------------------
---------5-------5---7------------------------------------------------------------------
-----7---5---7---5---6-------------------------------------------------------------------
-----7---3---7---3---5---------------------------------------------------------------------
-----5-------5------------------------------------------------------------------------------





“…in the darkness    we were all         stripped searched   nothing was found
----5------------------------------------------------------------------------------5-----
----5---------------------------------------------------------------4----2-----4---5-------
----5-----------------------7------------------------------3--------5----3-----5---5-------
----3-----------------------7------------------------------3--------5----3-----5---3--------
----------------------------5------------------------------1--------3----1-----3------------



end

---x---x---x-----------------------------------
---5---5---5-----------------------------------
---5---5---5---7-------------------------------
---5---5---5---6-------------------------------
---3---2---3---5-------------------------------
---x---x---x-----------------------------------

didnt give the stum paterns but you can figure it out if yer not 
and IDIOT!..but then again to idiot listens to saves the day...HOLLER!
            
Hard to play? Try these video lessons and learn fast. | Correct




comments powered by Disqus
↑ Back to top | Tablatures and chords are parodies/interpretations of the original songs. You may use it for private study, scholarship, research or language learning purposes only