» » »

Saves The Day, See You Tabs (ver.1)

Artists:  A B C D E F G H I J K L M N O P Q R S T U V W X Y Z # 

See You Tabs (ver.1)

Saves The Day Tabs
 Rating:
4/5 (4 votes)
See You lessons Tabs too difficult? Try these video lessons and learn fast
1
                Saves The Day - "See You"

Verse
e|---------------------------------------------------------------------------|
B|---------------------------------------------------------------------------|
G|--5-5------5-5--5-5--5-5-5----5-5----5-5-5---------------------------------|
D|--5-5------5-5--3-3--5-3-3----3-3----2-3-2---------------------------------|
A|--3-3------3-3-------3-----------------------------------------------------|
E|---------------------------------------------------------------------------|

Chorus
e|---------------------------------------------------------------------------|
B|---------------------------------------------------------------------------|
G|---5--------------------------5-----7-7--9-9--10-10--9-9-------------------|
D|---5--5---------5-7--3--------5--5--7-7--9-9--10-10--9-9-------------------|
A|---3--5-----5-7------3--------3--5--5-5--7-7--8--8---7-7-------------------|
E|------3--5-8---------1-----------3-----------------------------------------|

Bridge
e|---------------------------------------------------------------------------|
B|---------------------------------------------------------------------------|
G|--9-9-9--5--7-7-7--4--5-5-5------------------------------------------------|
D|--9-9-9--5--7-7-7--4--5-5-5------------------------------------------------|
A|--7-7-7--3--5-5-5--2--3-3-3------------------------------------------------|
E|---------------------------------------------------------------------------|
            
Submit corrections

comments powered by Disqus
↑ Back to top | Saves The Day Tabs for See You. Lyrics for acoustic guitar and electric guitar. 1 Tablatures and chords are parodies/interpretations of the original songs. You may use it for private study, scholarship, research or language learning purposes only