» » »

Rock Tonic Juice Magic Tabs (ver.3)

Artists:  A B C D E F G H I J K L M N O P Q R S T U V W X Y Z # 

Rock Tonic Juice Magic Tabs (ver.3)

Saves The Day
Rating:
0/5 (0 votes)

Hard to play? Try these video lessons and learn fast.
                "Rocks Tonic Juice Magic" - Saves The Day

Intro
G---------------------6--------------------------------------------8-|
D--3------------------6--------------------------6-----------------8-|
A--3------------------4--------------------------6-----------------6-|
E--1---------------------------------------------4-------------------|

End of 1st Verse
B------------------------------------------------------6--------------------|
G----------------------------------------------------------8---6---8--------|
D--3----------------------------------------------------------------------6-|
A--3----------------------------------------------------------------------6-|
E--1----------------------------------------------------------------------4-|

Chorus
G--3-----------------------6-------------------------------8-|
D--3-----------------------6-------------6-----------------8-|
A--1-----------------------4-------------6-----------------6-|
E----------------------------------------4-------------------|



Bridge
G-----------------8--------------------6------------------------8-|
D-6---------------8--------------------6---------------3--------8-|
A-6---------------6--------------------4---------------3--------6-|
E-4----------------------------------------------------1----------|

End
G-----5---6-|
D-3---5---6-|
A-3---3---4-|
E-1---------|
            
Hard to play? Try these video lessons and learn fast. | Correct




comments powered by Disqus
↑ Back to top | Tablatures and chords are parodies/interpretations of the original songs. You may use it for private study, scholarship, research or language learning purposes only