» » »

My Sweet Fracture Bass tabs (ver.1)

Artists:  A B C D E F G H I J K L M N O P Q R S T U V W X Y Z # 

My Sweet Fracture Bass tabs (ver.1)

Saves The Day
Rating:
0/5 (0 votes)

Tabs too difficult? Try these video lessons and learn fast.
                This song is pretty easy,  and I'm positive I got this right. Have fun, Saves The Day is amazing..

Verse
G------------------------------------------------------------------------|
D----11----12---11----11----12---11----11----12---11-----11----12---11---|
A-00----00----0----00----00----0-----------------------------------------|
E-------------------------------------00----00----0----00-----00----0----|

---------------------------------------6---7---6----6---7---6-----|G
----11----12---11----11----12---11-00--00---0---00--00--0---------|D
-99----99----9----99----99----9-----------------------------------|A
------------------------------------------------------------------|E

G------------------------------------------------------------------------|
D----11----12---11----11----12---11----11----12---11-----11----12---11---|
A-00----00----0----00----00----0-----------------------------------------|
E-------------------------------------00----00----0----00-----00----0----|

---------------------------------------6---7---6----6---7---6-----|G
----11----12---11----11----12---11-00--00---0---00--00--0---------|D
-99----99----9----99----99----9-----------------------------------|A
------------------------------------------------------------------|E

G------------------------------------------------------------------------|
D----11----12---11----11----12---11----11----12---11-----11----12---11---|
A-00----00----0----00----00----0-----------------------------------------|
E-------------------------------------00----00----0----00-----00----0----|

---------------------------------------6---7---6----6---7---6-----|G
----11----12---11----11----12---11-00--00---0---00--00--0---------|D
-99----99----9----99----99----9-----------------------------------|A
------------------------------------------------------------------|E

Verse:

G------------------------------------------------------------------------|
D----11----12---11----11----12---11----11----12---11-----11----12---11---|
A-00----00----0----00----00----0-----------------------------------------|
E-------------------------------------00----00----0----00-----00----0----|

---------------------------------------6---7---6----6---7---6-----|G
----11----12---11----11----12---11-00--00---0---00--00--0---------|D
-99----99----9----99----99----9-----------------------------------|A
------------------------------------------------------------------|E

G------------------------------------------------------------------------|
D----11----12---11----11----12---11----11----12---11-----11----12---11---|
A-00----00----0----00----00----0-----------------------------------------|
E-------------------------------------00----00----0----00-----00----0----|

---------------------------------------6---67-----|G
----11----12---11----11----12---11-00--00---0-----|D
-99----99----9----99----99----9-------------------|A
--------------------------------------------------|E

Chorus:

G|-------------------------------------------------------------------------------|
D|-------------------------------------------------------------------------------|
A|-22222222-55555555-------------------22222222-55555555----------77777777-------|
E|-------------------44444444-44444444-------------------44444444----------------|

G|-------------------------------------------------------------------------------|
D|-------------------------------------------------------------------------------|
A|-22222222-55555555--------4----------22222222-55555555-77777777-77777777-------|
E|-------------------4444444--44444444-------------------------------------------|

Verse:

G------------------------------------------------------------------------|
D----11----12---11----11----12---11----11----12---11-----11----12---11---|
A-00----00----0----00----00----0-----------------------------------------|
E-------------------------------------00----00----0----00-----00----0----|

---------------------------------------6---7---6----6---7---6-----|G
----11----12---11----11----12---11-00--00---0---00--00--0---------|D
-99----99----9----99----99----9-----------------------------------|A
------------------------------------------------------------------|E

G------------------------------------------------------------------------|
D----11----12---11----11----12---11----11----12---11-----11----12---11---|
A-00----00----0----00----00----0-----------------------------------------|
E-------------------------------------00----00----0----00-----00----0----|

---------------------------------------6---67-----|G
----11----12---11----11----12---11-00--00---0-----|D
-99----99----9----99----99----9-------------------|A
--------------------------------------------------|E

Chorus:

G|-------------------------------------------------------------------------------|
D|-------------------------------------------------------------------------------|
A|-22222222-55555555-------------------22222222-55555555----------77777777-------|
E|-------------------44444444-44444444-------------------44444444----------------|

G|-------------------------------------------------------------------------------|
D|-------------------------------------------------------------------------------|
A|-22222222-55555555--------4----------22222222-55555555-7---7---7---------------|
E|-------------------4444444--44444444-------------------------------------------|

Break Down:

G|--------------------------------------------------------------------------|
D|--------------------------------------------------------------------------|
A|--------------------------------------------------------5-5-5-5-5-5-5-5---|
E|--5-5-5-5-5-5-5-5---2-2-2-2-2-2-2-2---0-0-0-0-0-0-0-0---------------------|

---------------------------------------------------------------------------|G
---------------------------------------------------------------------------|D
--------------------------------------------------------5-5-5-5-5-5-5-5----|A
--5-5-5-5-5-5-5-5---2-2-2-2-2-2-2-2---0-0-0-0-0-0-0-0----------------------|E

Outro:

Repeat  Until   Ending
G|-----------------------------------------------------|
D|-----------------------------------------------------|
A|---------------------------------------5-5---5-5-----|
E|--5-5---5-5---2-2---2-2---0-0---0-0------------------|
            
Tabs too difficult? Try these video lessons and learn fast.




comments powered by Disqus
↑ Back to top | Tablatures and chords are parodies/interpretations of the original songs. You may use it for private study, scholarship, research or language learning purposes only