>
 >
Kaleidoscope

Kaleidoscope Guitar Tabs

Saves The Day - Kaleidoscope chords, tabs, tablatures, lyrics

Guitar lessons | Add/correct | Request | Top 50 tabs Artists:  A B C D E F G H I J K L M N O P Q R S T U V W X Y Z 0-9

Kaleidoscope Guitar Tabs – Saves The Day

CD, Sheet music, Poster

Do you like Kaleidoscope? Share with your friends now
Tabs
Saves The Day
Under the Boards
2/1/08


Eb tuning

Intro
eb|------------------------------------------|
Bb|------------------------------------------|
Gb|-9-11--11--11-9-7--6~---------(7)---------|
Db|-0-----------------7------(7h9---9)-------|
Ab|--------------------------------------x2--|
Eb|------------------------------------------|

Right
eb|-------------0----0------------------|
Bb|-----3--------------3-2-0------------|
Gb|---0---0---0---0----------2b^r--4----|
Db|-4-------4--------------------4------|
Ab|-------------------------------------|
Eb|-------------------------------------|

Left
eb|-------------------------------------|
Bb|-------------------------------------|
Gb|---0---0---0---0---0---0-------------|
Db|-4---4---4---4---4---4---4b^r4b^r----|
Ab|-------------------------------------|
Eb|-------------------------------------|

Verse
Right
eb|-------------------------------------------------------|
Bb|--3--3--3--3--------------------3-3-3-3-3-------3------|
Gb|--4--4--4--4--------------------4-0-0-0-0-3-3-3-4-...--|
Db|--4--4--4--4--------------------4-4-4-4-4-3-3-3-4------|
Ab|------------------------------------------1-1-1--------|
Eb|---------------lots of times---------------------------|

Left
eb|--------------------------------------|
Bb|--------------------------------------|
Gb|--------------------------------------|
Db|--------------------------------------|
Ab|----4-4-4-5-------8-8-8-9-------------|
Eb|----2-2-2-3~\-----6-6-6-7~\-----------|


Re-Intro, Right/Left
Re-Verse


Bridge
Left
eb|--------------------------------------------------------------------|
Bb|--------------------------------------------------------------------|
Gb|---4-4-3-3-4------------------------4-4-3-3-4-----------------------|
Db|-4-----------2-4-5-5-4-4-2-2-4-4--1-----------2-4-5-5-7-7-8-8-5-5---|
Ab|--------------------------------------------------------------------|
Eb|--------------------------------------------------------------------|

Right
eb|--------------------------------------------------------------------|
Bb|--------------------------------------------------------------------|
Gb|----(7)------------------------------(7)----------------------------|
Db|----/9--(8)--------------------------/9--(8)------5-5-7-7-8-8-5-5---|
Ab|--------/9---7-9-10109-9-7-7-9-9--6~-----/9---7-9-------------------|
Eb|--------------------------------------------------------------------|

Solo/Outro
Rhythm
eb|-------------------------------------------------------------------|
Bb|-------------------------------------------------------------------|
Gb|----------------------------------------------lots of times--------|
Db|-------------------------------------------------------------------|
Ab|-------------------------------------------------------------------|
Eb|-7-7---7-7-7---7-7-7---7-7-2-2-2-3-3---3-3-3---3-3-3---3-3-6-6-6---|

eb|--------------------------------------------------------|
Bb|--------------------------------------------------------|
Gb|-tremolo pick-------------------------------------------|
Db|--------------------------------------------------------|
Ab|--------------------------------------------------------|
Eb|-7>>---2>>---3>>---5>>---0>>---2>>---3>>---6>>---7~-----|

Lead
eb|----------------------------------------------------------------|
Bb|-12----7-------------------------------------------17b19-19r17--|
Gb|-14b^--9b^----------9-11-11--11-9-11----9-11/14-16--------------|
Db|------------9~----9------------------9--------------------------|
Ab|----------------------------------------------------------------|
Eb|----------------------------------------------------------------|

eb|-14-----14----14----14----14------------------------------------|
Bb|-17b^---17b^--17b^--17b^--17b^--17b19r-15-----------------------|
Gb|------------------------------------------15------14-16-16------|
Db|-----------------------------------------------16---------------|
Ab|----------------------------------------------------------------|
Eb|----------------------------------------------------------------|

eb|----------------------------------------------------------------|
Bb|------------------------------------14-15-14----------14-15-14--|
Gb|-16-14----14-16-16---16-14----14-16----------16-14-16-----------|
Db|-------16------------------16-----------------------------------|
Ab|----------------------------------------------------------------|
Eb|----------------------------------------------------------------|

eb|------------------------------------------/18>\--/19>>>>>>------|
Bb|----------14-15--17>>\--/19>>\--/20>>>>\------------------------|
Gb|-16-14-16-------------------------------------------------------|
Db|----------------------------------------------------------------|
Ab|----------------------------------------------------------------|
Eb|----------------------------------------------------------------|

eb|->>>>>>>\-----------/19>>>>>>>>>>>>>>>>>>>>>>>>>>\--------------|
Bb|-----------/20>>>\----------------------------------/20>>>\-----|
Gb|----------------------------------------------------------------|
Db|----------------------------------------------------------------|
Ab|----------------------------------------------------------------|
Eb|----------------------------------------------------------------|

eb|--tremolo pick throughout------------------------------------------------|
Bb|------------------------------------------------------14-15--------------|
Gb|-9-11--9--------9-11--9-----------------9-11--14--16--------15--18p16----|
Db|---------12-11----------12-11b^--11-12-----------------------------------|
Ab|-------------------------------------------------------------------------|
Eb|-------------------------------------------------------------------------|





Comments


Popular Saves The Day tabs & chords
Firefly Bass Tabs
The Tide Of Our Times Chords
Three Miles Down Chords
At Your Funeral 2 Tabs
Dont Know Why 3 Tabs
Shoulder To The Wheel 1 Tabs
Sweeter For The Betrayal Tabs
The Way His Collar Falls 1 Tabs
What Went Wrong Tabs
My Sweet Fracture Ukulele


Song lyrics



↑ Back to top | Tablatures and chords are parodies/interpretations of the original songs. You may use it for private study, scholarship, research or language learning purposes only
© 2014 AZChords.com Contact us | Privacy policy | DMCA | Add/correct tabs | Request tabs | Top 50 tabs