>
 >
Jukebox Breakdown 1

Jukebox Breakdown 1 Guitar Tabs

Saves The Day - Jukebox Breakdown 1 chords, tabs, tablatures, lyrics

Guitar lessons | Add/correct | Request | Top 50 tabs Artists:  A B C D E F G H I J K L M N O P Q R S T U V W X Y Z 0-9

Jukebox Breakdown 1 Guitar Tabs – Saves The Day

CD, Sheet music, Poster

Do you like Jukebox Breakdown 1? Share with your friends now
Bass TabsTabsTabs v2
Hey..My name is Josh Sposato...This is a COOL tab FROM a BAND i LOVE...its correct...^_^




Intro: 
G|--4--|---44-----------------x-8-x-111111/13---44------------------------| 
D|--4--|---44--------22x2--66-x-8-x-111111/13---44-------22x2--66-x-4-x-2-| 
A|--2--|---22-4h6h4--22x2--66-x-6-x-9-9-9-/11---22-4h6h4-22x2--66-x-4-x-2-| 
E|-----|-------------00x0--44----------------------------00x0--44-x-2-x-0-| 

Verse: 
G|-------------------------------------| x2
D|-99999999-88888888-6666666-4444-6666-| 
A|-------------------------------------| 
E|-------------------------------------| (palm muted)


Pre-Chorus: 
G|-444xx------------------| x2
D|-444xx-444x-222xx-222xx-| 
A|-222xx-444x-222xx-222xx-| 
E|-------222x-000xx-000xx-|

Chorus: 
G|---44-----------------x-8-x-111111/13---44------------------------| 
D|---44----------22--66-x-8-x-111111/13---44-------22x2--66-x-4-x-2-| 
A|---22-4h6h4h0--22--66-x-6-x-9-9-9-/11---22-4h6h4-22x2--66-x-4-x-2-| 
E|---------------00--44----------------------------00x0--44-x-2-x-0-| 

Bridge: 
G|-44-3---------------------------------------------------------------- 
D|-44-3--2---xx66xx66-xx99xx99-xx66xx44xx22xx22---xx66xx8/9--xx22xx22-- 
A|-22-1--2---xx66xx66-xx99xx99-xx66xx44xx22xx22---xx66xx8/9--xx22xx22-- 
E|-------0---xx44xx44-xx77xx77-xx44xx22xx00xx00---xx44xx6/7--xx00xx00-- 

 
G|------------------------| 
D|-xx99xx88xx66xx44-2---4-| 
A|-xx99xx88xx66xx44-2---4-| 
E|-xx77xx66xx44xx22-0---2-| 

After Bridge
G|-------------------99999999----------| x2
D|-99999999-88888888----------66666666-| 
A|-------------------------------------| 
E|-------------------------------------| Palm Muted

Ending: 
G|----------------4-------------| 
D|-66-x-4-x-2-----4----------9/-| 
A|-66-x-4-x-2-----2----------9/-| 
E|-44-x-2-x-0----------------7/-|





Comments


Popular Saves The Day tabs & chords
Get Fucked Up Bass Tabs
1984 Chords
3rd Engine Tabs
Holly Hox Forget Me Not 1 Tabs
Monkey (Solo) Tabs
Nightengale 2 Tabs
Rocks Tonic Jusice Magic Tabs
Take Our Cars Now 2 Tabs
Cars And Calories Ukulele
Deranged And Desperate Ukulele


Song lyrics



↑ Back to top | Tablatures and chords are parodies/interpretations of the original songs. You may use it for private study, scholarship, research or language learning purposes only
© 2014 AZChords.com Contact us | Privacy policy | DMCA | Add/correct tabs | Request tabs | Top 50 tabs