>
 >
Jesse And My Whetstone

Jesse And My Whetstone Guitar Tabs

Saves The Day - Jesse And My Whetstone chords, tabs, tablatures, lyrics

Guitar lessons | Add/correct | Request | Top 50 tabs Artists:  A B C D E F G H I J K L M N O P Q R S T U V W X Y Z 0-9

Jesse And My Whetstone Guitar Tabs – Saves The Day

CD, Sheet music, Poster

Do you like Jesse And My Whetstone? Share with your friends now
ChordsTabsUkulele
-------------------------------------------------------------------------------
                             SONG NAME - Band Name
-------------------------------------------------------------------------------

Tuning:Standard

There is a very easy trick to get the strumming for the verses, just remember when 

Verse 1

e|-----------------------------------------------------------------------------------|
B|------------------------2---------0------------------------------------------------|
G|------6--------4--------2---------1------------------------------------------------|
D|------6--------4--------2---------2----------------x8------------------------------|
A|------4--------2--------0---------2------------------------------------------------|
E|----------------------------------0------------------------------------------------|

Chorus 1 (Listen for a quick chord change from A to Am)
e|-------------------------0----------------0---------------------------------------|
B|--------2--------1-------0--------2-------1---------------------------------------|
G|--------2--------2-------1--------2-------2---------------------------------------|
D|--------2--------2-------2--------2-------2---------------------------------------|
A|--------0--------0-------2--------0-------2---------------------------------------|
E|-------------------------0----------------0---------------------------------------|

Verse 2

e|-----------------------------------------------------------------------------|
B|----------------------2--------0---------------------------------------------|
G|-----6--------4-------2--------1---------------------------------------------|
D|-----6--------4-------2--------2------------x4-------------------------------|
A|-----4--------2-------0--------2---------------------------------------------|
E|-------------------------------0---------------------------------------------|

Interlude (Palm Muted)

e|-----------------------------------------------------------------------------|
B|----------------------2------0-----------------------------------------------|
G|------6--------4------2------1-----------------------------------------------|
D|------6--------4------2------2--------------x4-------------------------------|
A|------4--------2------0------2-----------------------------------------------|
E|-----------------------------0-----------------------------------------------|


Verse 3
e|-----------------------------------------------------------------------------|
B|-----------------------2------0------------------------2---------------------|
G|------6--------4-------2------1---------6------4-------2---------------------|
D|------6--------4-------2------2---(x3)--6------4-------2---------------------|
A|------4--------2-------0------2---------4------2-------0---------------------|
E|------------------------------0----------------------------------------------|

Chorus 2

e|----0----------0-----------------------------------------------------------|
B|----0----------2-----------------------------------------------------------|
G|----1----------2-----------------------------------------------------------|
D|----2----------2-----------x4----------------------------------------------|
A|----2----------0-----------------------------------------------------------|
E|----0----------------------------------------------------------------------|

Outro
e|-----------------------------------------------------------------------------|
B|----------------------2--------0---------------------------------------------|
G|-----6--------4-------2--------1---------------------------------------------|
D|-----6--------4-------2--------2------------x4-------------------------------|
A|-----4--------2-------0--------2---------------------------------------------|
E|-------------------------------0---------------------------------------------|

| /  slide up
| \  slide down
| h  hammer-on
| p  pull-off
| ~  vibrato
| +  harmonic
| x  Mute note

I feel that I have tabbed about ever last detail of the song and it is 99.9% correct, 
===============================================================================





Comments


Popular Saves The Day tabs & chords
Get Fucked Up 2 Bass Tabs
1984 Chords
Cant Stay The Same Chords
My Sweet Fracture Chords
The Tide Of Our Times Chords
Coconut Tabs
In My Waking Life Tabs
Jessie And My Whetstone 1 Tabs
Cars And Calories Ukulele
The Way His Collar Falls Ukulele


Song lyrics



↑ Back to top | Tablatures and chords are parodies/interpretations of the original songs. You may use it for private study, scholarship, research or language learning purposes only
© 2014 AZChords.com Contact us | Privacy policy | DMCA | Add/correct tabs | Request tabs | Top 50 tabs