» » »

Freakish Tabs (ver.3)

Artists:  A B C D E F G H I J K L M N O P Q R S T U V W X Y Z # 

Freakish Tabs (ver.3)

Saves The Day
Rating:
0/5 (0 votes)

Hard to play? Try these video lessons and learn fast.
                tuning:standard
verse- the guitar doesnt come in until about 30 sec. into the verse
e|---------------------------------------------------------------------------|
B|---------------------------------------------------------------------------|
G|7--9--5---3h5-3-5-7--9--5--3h5---------------------------------------------|
D|7--9--5-----------7--9--5--------------------------------------------------|
A|5--7--3-----------5--7--3--------------------------------------------------|
E|---------------------------------------------------------------------------|
chorus-4x
e|---------------------------------------------------------------------------|
B|---------------------------------------------------------------------------|
G|55-5-----------------------------------------------------------------------|
D|55-5-55-5--77-7-99-9-------------------------------------------------------|
A|33-3-55-5--77-7-99-9-------------------------------------------------------|
E|-----33-3--55-5-77-7-------------------------------------------------------|
verse 2-same as verse 1
(chorus 2x)
verse 3
e|---------------------------------------------------------------------------|
B|--------2-----2----2-1-0---------------------------------------------------|
G|7--------1--1----2------0--------------------------------------------------|
D|7--------------------------------------------------------------------------|
A|5---------------------------------------------------------------------------|
E|---------------------------------------------------------------------------|
next chorus- play normal chorus riff 9x but after the first time do this 3x
e|---------------------------------------------------------------------------|
B|---------------------------------------------------------------------------|
G|10-10p8--------------------------------------------------------------------|
D|-------9-------------------------------------------------------------------|
A|---------------------------------------------------------------------------|
E|---------------------------------------------------------------------------|
you end on a D5powerchord
            
Hard to play? Try these video lessons and learn fast. | Correct




comments powered by Disqus
↑ Back to top | Tablatures and chords are parodies/interpretations of the original songs. You may use it for private study, scholarship, research or language learning purposes only