» » »

Saves The Day, Freakish Tabs (ver.2)

Artists:  A B C D E F G H I J K L M N O P Q R S T U V W X Y Z # 

Freakish Tabs (ver.2)

Saves The Day Tabs
 Rating:
4/5 (4 votes)
Freakish lessons Tabs too difficult? Try these video lessons and learn fast
1
                Good song


x - dont play 
x (all across) - muted rake 
... - palm mute 
~ - let ring out 
^ - bend 
h - hammer on 
p - pull off 
/ - slide down the neck 
\ - slide up the neck 


VERSE 1&2 (clean) x2 
e|----------------------------------| 
B|----------------------4~----------| 
G|------4~-----4~-----4--------3~---| 
D|----6-------------4----------4----| 
A|--6--------2---------------4------| 
E|---------0---------------2--------| 

PRE-CHORUS (distorted) 
e|-----------------x---------------------------| 
B|----------11-11--x-11/12-12-12---------------| 
G|-----------x--x--x--x--x--x--x---------------| 
D|--9--9--9--9--9--x--9--9--9--9--9--9--9-11---| 
A|--6--7-11--9--9--x--9--9--9--9--6--7-11--9---| 
E|-----------------x---------------------------| 

CHORUS (distorted) x2 
e|------------------------------------------| 
B|------------------------------------------| 
G|--44-4-33-3-44-4-44-4-44-4-33-4-6-4p3-----| 
D|--44-4-44-4-44-4-xx-4-44-4-44-x-x-x-x-4---| 
A|--22-2-xx-x-22-2-22-2-22-2-xx-2-4-2-2-4---| 
E|-------22-2------00--------22---------2---| 

BRIDGE (distorted) x2 
e|-----------------------------| 
B|-----------------------------| 
G|-----------------------------| 
D|--2-22-2-22-2-66-6-44-4-22---| 
A|--2-22-2-22-2-66-6-44-4-22---| 
E|--0-00-0-00-0-44-4-22-2-00---| 

After the bridge, play the chorus chords once through, then this for the solo 
SOLO 
e|-----------------------------------------| 
B|--7-4-7-4----9-7--7-4-7-4----------------| 
G|----------4---------------4-6-4-3^-------| 
D|------------------------------------4~---| 
A|-----------------------------------------| 
E|-----------------------------------------|
            
Submit corrections

comments powered by Disqus
↑ Back to top | Saves The Day Tabs for Freakish. Lyrics for acoustic guitar and electric guitar. 1 Tablatures and chords are parodies/interpretations of the original songs. You may use it for private study, scholarship, research or language learning purposes only