>
 >
Eulogy

Eulogy Guitar Tabs

Saves The Day - Eulogy chords, tabs, tablatures, lyrics

Guitar lessons | Add/correct | Request | Top 50 tabs Artists:  A B C D E F G H I J K L M N O P Q R S T U V W X Y Z 0-9

Eulogy Guitar Tabs – Saves The Day

CD, Sheet music, Poster

Do you like Eulogy? Share with your friends now
Tabs

Key of Db
Eb Tuning

. = palm mute
/ = slide
h = hammer-on
p = pull-off



=================
Guitar One (left)
=================

Intro and Verse One
Eb|-------------------------------------------------|
Bb|3~-----------------------------------------------|
Gb|0~-----------0-----------------------------------|
Db|0~-------4-------4---2--2~-----4-4-4h5p4-2-2-----|
Ab|------------------------0~-----0-----------------|
Eb|3~-----3---3---3---3-------------------------3---|
                                  Third time,       skip to here:
Eb|------------------------------------------------|------------------|
Bb|3~----------------------------------------------|--2---3---2-------|
Gb|0~-----------0----------------------------------|--2---2---2---0---|
Db|0~-------4-------4---2--2~-----4-4-4h5p4-2-2/---|--------------0---|
Ab|------------------------0~-----0----------------|0---0---0---0-----|
Eb|3~-----3---3---3---3----------------------------|------------------|


Pre-Chorus
Eb|-----------------------------------------|
Bb|--------------------------------*swell---|
Gb|---------------------------------volume--|
Db|-----------------------5555-55x----------|
Ab|4-444444444444444-4-4444444-44x----------|
Eb|2-222222222222222-3-3333333-33x----------|
     ...............   .......


Chorus
Eb|--------------------0-----------------------------------|
Bb|------------0-------0-----------------------------------|
Gb|----0-------0-7-7---------------------------------------|
Db|9---0-7-7-----7-7-----4-4---4-5---5-5-5-5-5-5-5-5-5-5---|
Ab|9-----7-7-----5-5-----4-4---4-5---5-5-5-5-5-5-5-5-5-5---|
Eb|7-----5-5-------------2-2---2-3---3-3-3-3-3-3-3-3-3-3---|  x2

Eb|------------------------------------------------------------|
Bb|------------------------------------------------------------|
Gb|------------------7-7---7-----------------------------------|
Db|----9---9-7-7---7-7-7---7-4-4---4-5---5-5-5-5-5-5-5-5-5-5---|
Ab|----9---9-7-7---7-5-5---5-4-4---4-5---5-5-5-5-5-5-5-5-5-5---|
Eb|9/--7---7-5-5---5---------2-2---2-3---3-3-3-3-3-3-3-3-3-3---|


Verse Two

Play intro/verse riff twice, then

Eb|-----------------------------------------------------------------------|
Bb|------------------------------------------------------------2223322----|
Gb|------------------------------------------------------------22222220---|
Db|-----------------2222222244454220-------------------22222222-------0---|
Ab|-----------------0000000000000000-------------------00000000-----------|
Eb|3333333333333333------------------33333333333333333--------------------|
   ................ ............     ................. .....


Repeat Chorus


Bridge
bE|-----------------------------------------------------------------------|
bB|-----------------------------------------------------------------------|
Gb|-----------------------------------------------------------------------|
Db|-----------------------------------4444444444444444-5555555555555555---|
Ab|4-444444444444444-4444444444444444-2222222222222222-1111111111111111---|
Eb|2-222222222222222-3333333333333333-------------------------------------|
     ............... ................ ................ ............

Eb|--------------------------------------------------------|
Bb|----------------------------------------------~~~~~~~---|
Gb|------------------------------------6-666666666666666---|
Db|7-777777777777777-7-777777777777777-8-88888888----------|
Ab|5-555555555555555-4-444444444444444---------------------|
Eb|--------------------------------------------------------|
     ...............   ...............   .....

Eb|------------------------------------|
Bb|~~~~~~~~~~~~~~~~-bend up gradually--|
Gb|7777777777777777-9999999999999999---|
Db|------------------------------------|
Ab|------------------------------------|
Eb|------------------------------------|

Eb|----------------------------------------------|
Bb|----------------------------------------------|
Gb|----rest--------------------------------------|
Db|------------5-5-5-5-5-5-5-5-5-5-5-5-5-5-5-5---|
Ab|------------5-5-5-5-5-5-5-5-5-5-5-5-5-5-5-5---|
Eb|------------3-3-3-3-3-3-3-3-3-3-3-3-3-3-3-3---|

Eb|--------------------------------------------------------------------|
Bb|--------------------------------------------------------------------|
Gb|--------------7-7---7-----------------------------------------------|
Db|9---9-7-7---7-7-7---7-4-4---4-5---5-5-5-5-5-5-5-5-5-5-5-5-5-5-5-5---|
Ab|9---9-7-7---7-5-5---5-4-4---4-5---5-5-5-5-5-5-5-5-5-5-5-5-5-5-5-5---|
Eb|7---7-5-5---5---------2-2---2-3---3-3-3-3-3-3-3-3-3-3-3-3-3-3-3-3---|


Chorus
Eb|--------------------0-----------------------------------|
Bb|------------0-------0-----------------------------------|
Gb|----0-------0-7-7---------------------------------------|
Db|9---0-7-7-----7-7-----4-4---4-5---5-5-5-5-5-5-5-5-5-5---|
Ab|9-----7-7-----5-5-----4-4---4-5---5-5-5-5-5-5-5-5-5-5---|
Eb|7-----5-5-------------2-2---2-3---3-3-3-3-3-3-3-3-3-3---|  x3

Eb|------------------------------------------------------------|
Bb|------------------------------------------------------------|
Gb|------------------7-7---7-----------------------------------|
Db|----9---9-7-7---7-7-7---7-4-4---4-5---5-5-5-5-5-5-5-5-5-5---|
Ab|----9---9-7-7---7-5-5---5-4-4---4-5---5-5-5-5-5-5-5-5-5-5---|
Eb|9/--7---7-5-5---5---------2-2---2-3---3-3-3-3-3-3-3-3-3-3---|


Outro
Eb|--------------------------0~----------||
Bb|3~------------------------3~----------||
Gb|0~------------------------2~----------||
Db|0~------4~-------2~-------0~----------||
Ab|--------4~-------2~-------------------||
Eb|3~------2~-------0~-------------------||



=================
Guitar Two (right)
=================

Verse (last part)
Eb|----------------------------------------------------------------------|
Bb|----------------------------------------------------------------------|
Gb|----------------------------------------------------------------------|
Db|----------------------------------------------------------------------|
Ab|5555555555555555-7777777777777777-5555555555555555-7777777777777777---|
Eb|3333333333333333-5555555555555555-3333333333333333-5555555555555555---|
   ................ ................ ................ ................


Pre-Chorus (same as Guitar One)


Chorus
Eb|-----------------------------------------------------------|
Bb|----x-------x-------x-------------8-10--10--8--7--8--7-----|
Gb|7---x-7-9---x-9-11--x-11-9---9-11--------------------------|
Db|x---x-x-x---x-x-x---x-x--x---x-x---------------------------|
Ab|5-----5-7-----7-9-----9--7---7-9---------------------------|
Eb|-----------------------------------------------------------|  x2

Eb|---------------------------------------------------------------------|
Bb|--------------------------------------------8-10--10--8--7--8--7-----|
Gb|----9-11-11-9-11-11-9-11-11-9-11-12-11-9-7~--------------------------|
Db|----x-x--x--x-x--x--x-x--x--x-x--x--x--x-x---------------------------|
Ab|----7-9--9--7-9--9--7-9--9--7-9--10-9--7-5~--------------------------|
Eb|9/-------------------------------------------------------------------|


Verse Two
Eb|3~--------------------------------------------------------------------|
Bb|3~--------------------------------------------------------------------|
Gb|----------------------------------------------------------------------|
Db|----------------------------------------------------------------------|
Ab|5555555555555555-7777777777777777-5555555555555555-7777777777777777---|
Eb|3333333333333333-5555555555555555-3333333333333333-5555555555555555---|
   ................ ................ ................ ................

Eb|-----------------------------------------------------------------------|
Bb|------------------------------------------------------------22235555---|
Gb|------------------------------------------------------------22222222---|
Db|-----------------2222222244454220-------------------22222222-----------|
Ab|-----------------0000000000000000-------------------00000000-----------|
Eb|3333333333333333------------------33333333333333333--------------------|
   ................ ............     ................. .....


Repeat Chorus


Bridge
bE|-----------------------------------------------------------------------|
bB|-----------------------------------------------------------------------|
Gb|-----------------------------------------------------------------------|
Db|-----------------------------------4444444444444444-5555555555555555---|
Ab|4-444444444444444-4444444444444444-2222222222222222-1111111111111111---|
Eb|2-222222222222222-3333333333333333-------------------------------------|
     ............... ................ ................ ........

Eb|-----------------------------------------------------|
Bb|------------------------------------------~~~~~~~~---|
Gb|--9---77-----------4-64-3---------6666666666666666---|
Db|7777777777777777-------4----------88888888-----------|
Ab|5555555555555555-44-4----44444444--------------------|
Eb|-----------------------------------------------------|
   .. ..   ........ .. .    ........ ........

Eb|------------------------------------|
Bb|~~~~~~~~~~~~~~~~-~~~~~~~~~~~~~~~~---|
Gb|7777777777777777-9999999999999999---|
Db|------------------------------------|
Ab|------------------------------------|
Eb|------------------------------------|

"Solo"
Eb|--------------------------------------|
Bb|--------------------------------------|
Gb|7---x-7-9---x-9-11--x-11-/12--11--9---|
Db|x---x-x-x---x-x-x---x-x--x----x---x---|
Ab|5---x-5-7---x-7-9---x-9--/10--9---7---|
Eb|--------------------------------------|

Eb|------------------------------------|
Bb|------------------------------------|
Gb|7-7-7-7---9-/11--12--11-11-11-9-7---|
Db|x-x-x-x---x-x----x---x--x--x--x-x---|
Ab|5-5-5-5---7-/9---10--9--9--9--7-5---|
Eb|------------------------------------|

Eb|--------------------------------------|
Bb|--------------------------------------|
Gb|7---x-7-9---x-9-11--x-11-/12--11--9---|
Db|x---x-x-x---x-x-x---x-x--x----x---x---|
Ab|5---x-5-7---x-7-9---x-9--/10--9---7---|
Eb|--------------------------------------|

Eb|------------------------------|
Bb|------------------------------|
Gb|7-7-7-7---9-/11--12--11~------|
Db|x-x-x-x---x-x----x---x--------|
Ab|5-5-5-5---7-/9---10--9~-------|
Eb|------------------------------|


Chorus
Eb|-----------------------------------------------------------|
Bb|----x-------x-------x-------------8-10--10--8--7--8--7-----|
Gb|7---x-7-9---x-9-11--x-11-9---9-11--------------------------|
Db|x---x-x-x---x-x-x---x-x--x---x-x---------------------------|
Ab|5-----5-7-----7-9-----9--7---7-9---------------------------|
Eb|-----------------------------------------------------------|  x3

Eb|-----------------------------------------------|
Bb|-----------------------------------------------|
Gb|----9-11-11-9-11-11-9-11-11-9-11-12-11-9-7~----|
Db|----x-x--x--x-x--x--x-x--x--x-x--x--x--x-x-----|
Ab|----7-9--9--7-9--9--7-9--9--7-9--10-9--7-5~----|
Eb|9/---------------------------------------------|


Outro
Eb|------------------------------------------------|
Bb|------------------------------------------------|
Gb|--2--2--0-----0-----------2--2--0-----0---------|
Db|-----------4-----4~----------------4-----4~-----|
Ab|-----------0-----0~----------------0-----0~-----|
Eb|3-----------------------2-----------------------|

Eb|-----------------------------0~----------||
Bb|-----------------------------3~----------||
Gb|--2--2--0-----0--------------2~----------||
Db|-----------4-----4---2--0----0~----------||
Ab|-----------0-----0-----------------------||
Eb|0----------------------------------------||





Comments


Popular Saves The Day tabs & chords
Aint No Kind Of Love Chords
All Im Losing Is Me Chords
Lucky Number Chords
@ Your Funeral Tabs
Anywhere With You Tabs
Coconut Tabs
Don't Know Why 1 Tabs
Rocks Tonic Juice Magic 1 Tabs
Through Being Cool Tabs
At Your Funeral Ukulele


Song lyrics



↑ Back to top | Tablatures and chords are parodies/interpretations of the original songs. You may use it for private study, scholarship, research or language learning purposes only
© 2014 AZChords.com Contact us | Privacy policy | DMCA | Add/correct tabs | Request tabs | Top 50 tabs