» » »

Don't Know Why Tabs (ver.3)

Artists:  A B C D E F G H I J K L M N O P Q R S T U V W X Y Z # 

Don't Know Why Tabs (ver.3)

Saves The Day
Rating:
3/5 (2 votes)
Tabs too difficult? Try these video lessons and learn fast.
                Saves The Day
Don't Know Why
Sound The Alarm [2006]

I recently saw STD play this song live and I know for a fact that this is how it is 
aren't right but this tab is better than the ones on here right now.


Drop-D, Half-Step Down, Capo on 5

eb|-------5----5-----5-----5----5------|
Bb|----5---5-8---5-8--------5-8---5-8--|
Gb|-10---------------------------------|
Db|------------------------------------|
Ab|---------------------5--------------|
Db|------------------------------------| x1


eb|----------------------------------------------------------------|
Bb|--6--------------------5------------6-------------------5-------|
Gb|-------------------------5-------------5-------------5----5-----|
Db|-----8--7--5-------8---------------------7---5----------------8-|
Ab|-----------------------------------5--5----5--------8--8----8---|
Db|-8--8--8--8------10--10----10-----------------------------------| x4


eb|-------------------------------|
Bb|--6---------------5------------|
Gb|-------------------------------|
Db|-----8----------------8---5----|
Ab|--------8----------------------|
Db|-5--5--5--5-----10--10--10--10-| x1


eb|-------5----5-----5-----5----5------|
Bb|----5---5-8---5-8--------5-8---5-8--|
Gb|------------------------------------|
Db|------------------------------------|
Ab|--8-------------------0-------------|
Db|------------------------------------| x1


eb|----------------------------------------------------------------|
Bb|--6--------------------5------------6-------------------5-------|
Gb|-------------------------5-------------5-------------5----5-----|
Db|-----8--7--5-------8---------------------7---5----------------8-|
Ab|-----------------------------------5--5----5--------8--8----8---|
Db|-8--8--8--8------10--10----10-----------------------------------| x4


eb|-------------------------------|
Bb|--6---------------5------------|
Gb|-------------------------------|
Db|-----8----------------8---5----|
Ab|--------8----------------------|
Db|-5--5--5--5-----10--10--10--10-| x1


eb|-------------------------|
Bb|-------------------------|
Gb|-10-10-10-10-10-10-10-10-|
Db|-10-10-10-10-10-10-10-10-|
Ab|-5--5--5--5--5--5--5--5--|
Db|-------------------------| x1


eb|-------------------------|-------------------------|-------------------------|-------------------------|
Bb|-------------------------|-------------------------|-------------------------|-------------------------|
Gb|-10-10-10-10-10-10-10-10-|-9--9--9--9--9--9--9--9--|-10-10-10-10-10-10-10-10-|-10-10-10-10-10-10-10-10-|
Db|-10-10-10-10-10-10-10-10-|-10-10-10-10-10-10-10-10-|-10-10-10-10-10-10-10-10-|-10-10-10-10-10-10-10-10-|
Ab|-5--5--5--5--5--5--5--5--|-8--8--8--8--8--8--8--8--|-------------------------|-5--5--5--5--5--5--5--5--|

x2


eb|----------------------------------------------------------------|
Bb|--6--------------------5------------6-------------------5-------|
Gb|-------------------------5-------------5-------------5----5-----|
Db|-----8--7--5-------8---------------------7---5----------------8-|
Ab|-----------------------------------5--5----5--------8--8----8---|
Db|-8--8--8--8------10--10----10-----------------------------------| x5


eb|-------------------------------|
Bb|--6---------------5------------|
Gb|-------------------------------|
Db|-----8----------------8---5----|
Ab|--------8----------------------|
Db|-5--5--5--5-----10--10--10--10-| x1


eb|-------5----5-----5-----5----5------|
Bb|----5---5-8---5-8--------5-8---5-8--|
Gb|------------------------------------|
Db|------------------------------------|
Ab|--8-------------------0-------------|
Db|------------------------------------| x4


eb|--------------|
Bb|--------------|
Gb|--------------|
Db|--------------|
Ab|--8~~~~~~~----|
Db|--------------| x1
            
Tabs too difficult? Try these video lessons and learn fast.


comments powered by Disqus
↑ Back to top | Tablatures and chords are parodies/interpretations of the original songs. You may use it for private study, scholarship, research or language learning purposes only