» » »

Coconut Tabs (ver.1)

Artists:  A B C D E F G H I J K L M N O P Q R S T U V W X Y Z # 

Coconut Tabs (ver.1)

Saves The Day
Rating:
4/5 (2 votes)

Hard to play? Try these video lessons and learn fast.
                COCONUT


*note: this is such an underrated and beautiful song by saves the day and i finally
tabs for it! credit & many thanks goes out to someone who goes by m-state who submitted the
to tabworld.com. i made a few adjustments to m-state's version and thought i'd post it 
that it's absolutely correct. any suggestions would be great. enjoy!


   the dimly lit...
eb|---0---2--------------------4-----------0---2--------------------4------------------------|
Bb|---2-3-2---3--3--2--------2---2---------2-3-2---3--3--2--------2---2----------3-------2---|
Gb|-2-2-2-2---2--2--1------2-------2-----2-2-2-2---2--2--1------2-------2----------2-------4-|
Db|-2-2-2-4---4--4--2--2/4-----------4---2-2-2-4---4--4--2--2/4-----------4----4-------3-----|
Ab|---0-0-----2--2--0----------------------0-0-----2--2--0-------------------2-------4-------|
Eb|------------------------------------------------------------------------------------------|

   it's into the dark....
eb|-----0-1-0------------------------------0---0---0---0--------------x-|
Bb|-3---3-----3---3--------2----2-0----2---0---0---0---0-------2---2--x-|
Gb|-2---2-------2---2------2----2-2-2--2---1---1---1---1-------3---3--x-|
Db|-0---0----------------2-2----2-2--2-2---2---2---2---2-----2-2---2--x-|
Ab|--------------------0---0--0-0-0----0-0-2---2---2---2-------4---4--x-|
Eb|----------------------------------------0-0-0-0-0-0-0-0-2---2-2-2--x-|


   guitar 1 - but i wouldn't have it any other way...
eb|---------------------4---4---2-----2------------------------4---4---2-----2---|
Bb|-3---3--2-2-2-2------2------------------3---3--2-2-2-2------2-----------------|
Gb|-2---2--4-4-4-4----2-2---------2-2------2---2--4-4-4-4----2-2---------2-2-----|
Db|-4---4--3-3-3-3--4-4-4-4---4---4-4---4--4---4--3-3-3-3--4-4-4-4---4---4-4---4-|
Ab|-2---2--4-4-4-4-------------------------2---2--4-4-4-4------------------------|
Eb|------------------------------------------------------------------------------|

   and i don't mind my broken legs...
eb|----------------------0-1-0---------|
Bb|-----3-------2----3---3-----3---3---|
Gb|-------2-------4--2---2-------2---2-|
Db|---4-------3------0---0-------------|
Ab|-2-------4--------------------------|
Eb|------------------------------------|

   (guitar 2)
eb|--9--9--9-7-5--4--5---7-|
Bb|-10-10-10-9-7--5--7---9-|
Gb|------------------------|
Db|------------------------|
Ab|------------------------|
Eb|------------------------|


   i walk myself home...
eb|---0---2--------------------4-----------0---2--------------------4------------------------|
Bb|---2-3-2---3--3--2--------2---2---------2-3-2---3--3--2--------2---2----------3-------2---|
Gb|-2-2-2-2---2--2--1------2-------2-----2-2-2-2---2--2--1------2-------2----------2-------4-|
Db|-2-2-2-4---4--4--2--2/4-----------4---2-2-2-4---4--4--2--2/4-----------4----4-------3-----|
Ab|---0-0-----2--2--0----------------------0-0-----2--2--0-------------------2-------4-------|
Eb|------------------------------------------------------------------------------------------|

   to carry me out to sea...
eb|-----0-1-0------------------------------0---0---0---0--------------x-|
Bb|-3---3-----3---3--------2----2-0----2---0---0---0---0-------2---2--x-|
Gb|-2---2-------2---2------2----2-2-2--2---1---1---1---1-------3---3--x-|
Db|-0---0----------------2-2----2-2--2-2---2---2---2---2-----2-2---2--x-|
Ab|--------------------0---0--0-0-0----0-0-2---2---2---2-------4---4--x-|
Eb|----------------------------------------0-0-0-0-0-0-0-0-2---2-2-2--x-|


   guitar 1 - but i wouldn't have it any other way...
eb|---------------------4---4---2-----2------------------------4---4---2-----2---|
Bb|-3---3--2-2-2-2------2------------------3---3--2-2-2-2------2-----------------|
Gb|-2---2--4-4-4-4----2-2---------2-2------2---2--4-4-4-4----2-2---------2-2-----|
Db|-4---4--3-3-3-3--4-4-4-4---4---4-4---4--4---4--3-3-3-3--4-4-4-4---4---4-4---4-|
Ab|-2---2--4-4-4-4-------------------------2---2--4-4-4-4------------------------|
Eb|------------------------------------------------------------------------------|

   i'll grow my hair down to my knees...
eb|----------------------0-1-0---------|
Bb|-----3-------2----3---3-----3---3---|
Gb|-------2-------4--2---2-------2---2-|
Db|---4-------3------0---0-------------|
Ab|-2-------4--------------------------|
Eb|------------------------------------|

   (guitar 2)
eb|--9--9--9-7-5--4--5---7-|
Bb|-10-10-10-9-7--5--7---9-|
Gb|------------------------|
Db|------------------------|
Ab|------------------------|
Eb|------------------------|


   i'd befriend coconut trees...
eb|-4-4-4-4-4-4-4-4-0-0-0-0-0-0-0-0-2-2-2-2-2-2-2-2-4-4-4-4-4-4-4-4-|
Bb|-2-2-2-2-2-2-2-2-2-2-2-2-2-2-2-2-2-2-2-2-2-2-2-2-2-2-2-2-2-2-2-2-|
Gb|-2-2-2-2-2-2-2-2-2-2-2-2-2-2-2-2-2-2-2-2-2-2-2-2-2-2-2-2-2-2-2-2-|
Db|-3-3-3-3-3-3-3-3-2-2-2-2-2-2-2-2-4-4-4-4-4-4-4-4-3-3-3-3-3-3-3-3-|
Ab|-----------------0-0-0-0-0-0-0-0---------------------------------|
Eb|-----------------------------------------------------------------|

eb|-0-0-0-0-0-0-0-0-1-|
Bb|-2-2-2-2-2-2-2-2-3-|
Gb|-2-2-2-2-2-2-2-2-2-|
Db|-2-2-2-2-2-2-2-2-0-|
Ab|-0-0-0-0-0-0-0-0---|
Eb|-------------------|


   guitar 1
eb|---0---2--------------------4-----------0---2--------------------4------------------------|
Bb|---2-3-2---3--3--2--------2---2---------2-3-2---3--3--2--------2---2----------3-------2---|
Gb|-2-2-2-2---2--2--1------2-------2-----2-2-2-2---2--2--1------2-------2----------2-------4-|
Db|-2-2-2-4---4--4--2--2/4-----------4---2-2-2-4---4--4--2--2/4-----------4----4-------3-----|
Ab|---0-0-----2--2--0----------------------0-0-----2--2--0-------------------2-------4-------|
Eb|------------------------------------------------------------------------------------------|

eb|---0---2--------------------4------------------------|
Bb|---2-3-2---3--3--2--------2---2----------3-------2---|
Gb|-2-2-2-2---2--2--1------2-------2----------2-------4-|
Db|-2-2-2-4---4--4--2--2/4-----------4----4-------3-----|
Ab|---0-0-----2--2--0-------------------2-------4-------|
Eb|-----------------------------------------------------|

   (guitar 2)
eb|------------------------------------------------------------------------------------|
Bb|------------------------------------------------------------------------------------|
Gb|------------------------------------------------------------------------------------|
Db|-------------------------------------------------------------------6h7p6------------|
Ab|-------------------------------------------------------------------------9-7-4--7/9-|
Eb|-12/14--12/9--9/12--9/5--4/5/7/9-----12/14--12/9--9/12--9/5--4/5/7------------------|

eb|----------------------------------------------|
Bb|----------------------------------------------|
Gb|---------6/2------6/7-6-4-------7-6-4---------|
Db|-6h7p6--------4-----------7-6-4-------7-6-4/7-|
Ab|-------7--------------------------------------|
Eb|----------------------------------------------|


   guitar 1 - evaporating in the sun...
eb|-----0-1-0------------------------------0---0---0---0--------------x-|
Bb|-3---3-----3---3--------2----2-0----2---0---0---0---0-------2---2--x-|
Gb|-2---2-------2---2------2----2-2-2--2---1---1---1---1-------3---3--x-|
Db|-0---0----------------2-2----2-2--2-2---2---2---2---2-----2-2---2--x-|
Ab|--------------------0---0--0-0-0----0-0-2---2---2---2-------4---4--x-|
Eb|----------------------------------------0-0-0-0-0-0-0-0-2---2-2-2--x-|

   but i wouldn't have it any other way...
eb|---------------------4---4---2-----2------------------------4---4---2-----2---|
Bb|-3---3--2-2-2-2------2------------------3---3--2-2-2-2------2-----------------|
Gb|-2---2--4-4-4-4----2-2---------2-2------2---2--4-4-4-4----2-2---------2-2-----|
Db|-4---4--3-3-3-3--4-4-4-4---4---4-4---4--4---4--3-3-3-3--4-4-4-4---4---4-4---4-|
Ab|-2---2--4-4-4-4-------------------------2---2--4-4-4-4------------------------|
Eb|------------------------------------------------------------------------------|

eb|---------------------4---4---2-----2---------------------1-|
Bb|-3---3--2-2-2-2------2----------------------3-------2----2-|
Gb|-2---2--4-4-4-4----2-2---------2-2------------2-------4--3-|
Db|-4---4--3-3-3-3--4---4-4---4---4-4---4----4-------3------0-|
Ab|-2---2--4-4-4-4-------------------------2-------4----------|
Eb|-----------------------------------------------------------|

   (guitar 2)
eb|--9--9--9-7-5--4--5---7-|
Bb|-10-10-10-9-7--5--7---9-|
Gb|------------------------|
Db|------------------------|
Ab|------------------------|
Eb|------------------------|
            
Hard to play? Try these video lessons and learn fast. | Correct




comments powered by Disqus
↑ Back to top | Tablatures and chords are parodies/interpretations of the original songs. You may use it for private study, scholarship, research or language learning purposes only