» » »

Saves The Day, Certain Tragedy Tabs (ver.1)

Artists:  A B C D E F G H I J K L M N O P Q R S T U V W X Y Z # 

Certain Tragedy Tabs (ver.1)

Saves The Day Tabs
 Rating:
3.7/5 (6 votes)
Certain Tragedy lessons Tabs too difficult? Try these video lessons and learn fast
                This is the acoustic version from Bug Sessions Volume 1 EP.
[However, electric version can be played the same way]

Verse
eb|--3-3-------------1-1-1-1--3-3------------1-1-1-1--3-3--5-5-5-5---------|
Bb|--3-3----1-1-1-1--1-1-1-1--3-3---1-1-1-1--1-1-1-1--3-3--6-6-6-6-1-1-1-1-|
Gb|--4-4----0-0-0-0--2-2-2-2--4-4---0-0-0-0--2-2-2-2--4-4--7-7-7-7-0-0-0-0-|
Db|--5-5----2-2-0-2--3-3-3-3--5-5---2-2-0-2--3-3-3-3--5-5--7-7-7-7-2-2-2-2-|
Ab|--5-5----3-3-3-3--3-3-3-3--5-5---3-3-3-3--3-3-3-3--5-5--5-5-5-5-3-3-3-3-|
Eb|--3-3-------------1-1-1-1--3-3------------1-1-1-1--3-3------------------|

eb|--5-5-5-5--1-1-1-1--3-3------------1-1-1-1--3-3-----------1-1-1-1--3-3--|
Bb|--5-5-5-5--1-1-1-1--3-3---1-1-1-1--1-1-1-1--3-3--1-1-1-1--1-1-1-1--3-3--|
Gb|--5-5-5-5--2-2-2-2--4-4---0-0-0-0--2-2-2-2--4-4--0-0-0-0--2-2-2-2--4-4--|
Db|--7-7-7-7--3-3-3-3--5-5---2-2-0-2--3-3-3-3--5-5--2-2-0-2--3-3-3-3--5-5--|
Ab|--7-7-7-7--3-3-3-3--5-5---3-3-3-3--3-3-3-3--5-5--3-3-3-3--3-3-3-3--5-5--|
Eb|--5-5-5-5--1-1-1-1--3-3------------1-1-1-1--3-3-----------1-1-1-1--3-3--|

eb|-5-5-5-5----------5-5--3-3--1-1-1--5-5--3-3--1-1-1----------------------|
Bb|-6-6-6-6-1-1-1-1--5-5--3-3--1-1-1--5-5--3-3--1-1-1----------------------|
Gb|-7-7-7-7-0-0-0-0--5-5--4-4--2-2-2--5-5--4-4--2-2-2----------------------|
Db|-7-7-7-7-2-2-2-2--7-7--5-5--3-3-3--7-7--5-5--3-3-3----------------------|
Ab|-5-5-5-5-3-3-3-3--7-7--5-5--3-3-3--7-7--5-5--3-3-3----------------------|
Eb|------------------5-5--3-3--1-1-1--5-5--3-3--1-1-1----------------------|

Chorus
eb|----------1-1-1-1-5-5-5-5-1--3-1-3----------1-1-1-1-5-5-5-5-1-1-1--3-3--|
Bb|--1-1-1-1-1-1-1-1-6-6-6-6-1--3-1-3--1-1-1-1-1-1-1-1-6-6-6-6-1-1-1--3-3--|
Gb|--0-0-0-0-2-2-2-2-7-7-7-7-2--4-2-4--0-0-0-0-2-2-2-2-7-7-7-7-2-2-2--4-4--|
Db|--2-2-2-2-3-3-3-3-7-7-7-7-3--5-3-5--2-2-2-2-3-3-3-3-7-7-7-7-3-3-3--5-5--|
Ab|--3-3-3-3-3-3-3-3-5-5-5-5-3--5-3-5--3-3-3-3-3-3-3-3-5-5-5-5-3-3-3--5-5--|
Eb|----------1-1-1-1---------1--3-1-3----------1-1-1-1---------1-1-1--3-3--|

eb|----------1-1-1-1-5-5-5-5-4-4-4-3-3----------1-1-1-1-5-5-5--1-1-1-1-3-3-|
Bb|--1-1-1-1-1-1-1-1-6-6-6-6-4-4-4-3-3--1-1-1-1-1-1-1-1-6-6-6--1-1-1-1-3-3-|
Gb|--0-0-0-0-2-2-2-2-7-7-7-7-5-5-5-4-4--0-0-0-0-2-2-2-2-7-7-7--2-2-2-2-4-4-|
Db|--2-2-2-2-3-3-3-3-7-7-7-7-6-6-6-5-5--2-2-2-2-3-3-3-3-7-7-7--3-3-3-3-5-5-|
Ab|--3-3-3-3-3-3-3-3-5-5-5-5-6-6-6-5-5--3-3-3-3-3-3-3-3-5-5-5--3-3-3-3-5-5-|
Eb|----------1-1-1-1---------4-4-4-3-3----------1-1-1-1--------1-1-1-1-3-3-|

Bridge
eb|-5-5-5-5--3-3-3-3--1-1-1-1-----------1-1-1-1--3-3-3-3----------3--------|
Bb|-5-5-5-5--3-3-3-3--1-1-1-1-----------1-1-1-1--3-3-3-3--1-1-1-1-3--------|
Gb|-5-5-5-5--4-4-4-4--2-2-2-2-----------2-2-2-2--4-4-4-4--0-0-0-0-4--------|
Db|-7-7-7-7--5-5-5-5--3-3-3-3--2-2-2-2--3-3-3-3--5-5-5-5--2-2-2-2-5--------|
Ab|-7-7-7-7--5-5-5-5--3-3-3-3--2-2-2-2--3-3-3-3--5-5-5-5--3-3-3-3-5--------|
Eb|-5-5-5-5--3-3-3-3--1-1-1-1--0-0-0-0--1-1-1-1--3-3-3-3----------3--------|

Solo [Guitar 2 just plays verse in background)
eb|------------------------------------------------------------------------|
Bb|-5-5-5-5---3-3-3--1-1--1-3-5--5-5-5^-3-3---------5------5---------------|
Gb|-5-5-5-5---4-4-4--2-2--2-4-5--5-5-------5-5------5--7-7-5--7-5-7-7^-5---|
Db|---------------------------------------------5-7----------------------7-|
Ab|------------------------------------------------------------------------|
Eb|------------------------------------------------------------------------|

eb|--------------------|
Bb|--------------------|
Gb|----5-4-------------|
Db|--7-----5-3--4/5----|
Ab|--------------------|
Eb|--------------------|
            
Submit corrections

comments powered by Disqus
↑ Back to top | Saves The Day Tabs for Certain Tragedy. Lyrics for acoustic guitar and electric guitar. Tablatures and chords are parodies/interpretations of the original songs. You may use it for private study, scholarship, research or language learning purposes only