» » »

Saves The Day, Can't Stay The Same Tabs (ver.3)

Artists:  A B C D E F G H I J K L M N O P Q R S T U V W X Y Z # 

Can't Stay The Same Tabs (ver.3)

Saves The Day Tabs
 Rating:
4/5 (4 votes)
Can't Stay The Same lessons Tabs too difficult? Try these video lessons and learn fast
1
                This is my first tab... I *think* I got it right... enjoy ;)

Verse/Intro:

E|--------------------------|
B|--------------------------|
G|--------------------------|
D|-----5--6--5--1--3--1-----|
A|--3--6--8--6--3--4--3--3--|
E|--4--------------------4--|  (x12)

Chorus:

E|-------------------------|
B|-------------------------|
G|-------8-8-8-------6-6-6-|
D|-6-6-6-8-8-8-3-3-3-6-6-6-|
A|-6-6-6-6-6-6-3-3-3-4-4-4-|
E|-4-4-4-------1-1-1-------|  (x4)

Verse 2:

E|--------------------------|
B|--------------------------|
G|--------------------------|
D|-----5--6--5--1--3--1-----|
A|--3--6--8--6--3--4--3--3--|
E|--4--------------------4--|  (x8)

*Chorus*

Bridge

E|--------     --------     ---------------------------------|
B|--------     --------     ---------------------------------|
G|--------     --------     66666666888888886666666688888888-|
D|33333333     55555555     66666666888888886666666688888888-|
A|44444444 (x2)66666666 (x2)44444444666666664444444466666666-|
E|--------     --------     ---------------------------------|

E|--------     --------|
B|--------     --------|
G|--------     --------|
D|33333333     --------|
A|33333333 (x2)66666666 (x2)
E|11111111     33333333

E|---------------------------------------------------------|
B|---------------------------------------------------------|
G|---------------------------------------------------------|
D|6--------------------6--------------------------------6--|
A|6--------------------6--------------------------------6--|
E|4--------------------4--------------------------------4--|
    *Hey, everything's okay, I love you more then I can say,

E|------------------------|
B|------------------------|
G|------------------------|
D|6666666666666666---6----|
A|6666666666666666---6----|
E|4444444444444444---4----|
  We can't the same, Yeah!

*Chorus*
            
Submit corrections

comments powered by Disqus
↑ Back to top | Saves The Day Tabs for Can't Stay The Same. Lyrics for acoustic guitar and electric guitar. 1 Tablatures and chords are parodies/interpretations of the original songs. You may use it for private study, scholarship, research or language learning purposes only