>
 >
Bones

Bones Guitar Tabs

Saves The Day - Bones chords, tabs, tablatures, lyrics

Guitar lessons | Add/correct | Request | Top 50 tabs Artists:  A B C D E F G H I J K L M N O P Q R S T U V W X Y Z 0-9

Bones Guitar Tabs – Saves The Day

CD, Sheet music, Poster

Do you like Bones? Share with your friends now
Tabs


* = reference (see note)
^ = bend note
/ = slide up to
> = ring out
h = hammer on
p = pull off

==================================================================
MAKE SURE YOU READ ABOUT THE TUNING BEFORE JUMPING INTO THE TAB!!!
==================================================================

The tuning is weird. Chris and Dave might play it a half step down
or something else. I don't know for sure. But if you use the tuning
below, it will be just fine!!


         (DADGGe)
  High e: stays the same
       B: tune down to G  \ these stings will sound
       G: stays the same  / the exact same
       D: stays the same
       A: stays the same
   Low E: tune down to D


==================================================================

(0:02) Intro/Verse  x8

 -Quickly mute each note after playing it.

                                    *
e|-------------------------------------------|
G|--/12-12-12-12-12-12-10-8-7-7-7-7-7-7-7-7--|   (on the 4th, 6th, and 8th time,  
G|--/8--8--8--8--8--8--8--8-7-7-7-7-7-7-7-7--|    slightly bend up one of the G
D|-------------------------------------------|    strings while playing this note,
A|-------------------------------------------|    marked with an asterisk.)
D|-------------------------------------------|


(0:37) Verse  x4

 -No longer mute the notes

e|--------------------------------------------|
G|--/12-12-12-12-12-12-10-8-7-7-7-7-7^-7-7-7--| 
G|--/8--8--8--8--8--8--8--8-7-7-7-7-7^-7-7-7--|
D|--------------------------------------------|
A|--------------------------------------------|
D|--------------------------------------------|


(0:54) "Then they'll drive..."

e|---------|
G|---------|
G|---------|
D|--1>>>>--|
A|--1>>>>--|
D|--1>>>>--|


(0:56) Verse 2

e|------------------------------------------------|
G|------------------------------------------------|
G|------------------------------------------------|
D|--10-10--10-10-10-10--10-10--6-6--6-6-6-6--6-6--|
A|--10-10--10-10-10-10--10-10--6-6--6-6-6-6--6-6--|
D|--10-10--10-10-10-10--10-10--6-6--6-6-6-6--6-6--|

e|----------------------------------------|
G|----------------------------------------|
G|--8-8--8-8-8-8--8-8--8-8--8-8-8-8--8-8--|
D|--8-8--8-8-8-8--8-8--8-8--8-8-8-8--8-8--|
A|--6-6--6-6-6-6--6-6--6-6--6-6-6-6--6-6--|
D|----------------------------------------|

e|------------------------------------------------|
G|------------------------------------------------|
G|------------------------------------------------|
D|--10-10--10-10-10-10--10-10--6-6--6-6-6-6--6-6--|
A|--10-10--10-10-10-10--10-10--6-6--6-6-6-6--6-6--|
D|--10-10--10-10-10-10--10-10--6-6--6-6-6-6--6-6--|

e|---------------------------------------|
G|---------------------------------------|
G|--8-8--8-8-8-8--8-8--------------------|
D|--8-8--8-8-8-8--8-8---111-333-555-666--|
A|--6-6--6-6-6-6--6-6---111-333-555-666--|
D|----------------------111-333-555-666--|



(1:12) Verse 2 Part 2

e|-------------------------------------------|
G|-------------------------------------------|
G|-------------------------------------------|
D|--10-10-10-10-10-10-10-10-6-6-6-6-6-6-6-6--|
A|--10-10-10-10-10-10-10-10-6-6-6-6-6-6-6-6--|
D|--10-10-10-10-10-10-10-10-6-6-6-6-6-6-6-6--|

e|-----------------------------------|
G|-----------------------------------|
G|--8-8-8-8-8-8-8-8-8-8-8-8-8-8-8-8--|
D|--8-8-8-8-8-8-8-8-8-8-8-8-8-8-8-8--|
A|--6-6-6-6-6-6-6-6-6-6-6-6-6-6-6-6--|
D|-----------------------------------|

e|-------------------------------------------|
G|-------------------------------------------|
G|-------------------------------------------|
D|--10-10-10-10-10-10-10-10-6-6-6-6-6-6-6-6--|
A|--10-10-10-10-10-10-10-10-6-6-6-6-6-6-6-6--|
D|--10-10-10-10-10-10-10-10-6-6-6-6-6-6-6-6--|

e|-------------------------------|
G|-------------------------------|
G|--8-8-8-8-8-8-8-8--------------|
D|--8-8-8-8-8-8-8-8--1--3--5--6--|
A|--6-6-6-6-6-6-6-6--1--3--5--6--|
D|-------------------1--3--5--6--|


(1:29) Bridge

e|----------------------------------------------------->>>-|
G|----------------------------------------------------->>>-|
G|--------------/8-7-7-7-8-7-7-7-7-7-7-8-7-7-7---PICK-->>>-|
D|--/10>>-\6>>--/8-8-8-8-8-8-8-8-8-8-8-8-8-8-8---SLIDE->>>-|
A|--/10>>-\6>>--/6-6-6-6-6-6-6-6-6-6-6-6-6-6-6--------->>>-|
D|--/10>>-\6>>----------------------------------------->>>-|



(1:36) Breakdown

e|-----------------------------------------------|
G|-----------------------------------------------|
G|--x-8-8-8-8-----------x-10-10-10-10------------|
D|--x-8-8-8-8-x-8-8-8-8-x-10-10-10-10-x-6-6-6-6--|  x3
A|--x-6-6-6-6-x-8-8-8-8-x-8--8--8--8--x-6-6-6-6--|
D|------------x-8-8-8-8---------------x-6-6-6-6--|

e|-----------------------------------------------------|
G|-----------------------------------------------------|
G|--x-8-8-8-8------------10-10-10-10-------------------|
D|--x-8-8-8-8-x-8-8-8-8--10-10-10-10--6-6-6-6-6-6-6-6--|
A|--x-6-6-6-6-x-8-8-8-8--8--8--8--8---6-6-6-6-6-6-6-6--|
D|------------x-8-8-8-8---------------6-6-6-6-6-6-6-6--|


(1:55) Outro "Boooooones..."

 -Two guitars are playing in this part


Guitar One
e|------------------------------------------|
G|------------------------------------------|
G|--8-8-8-8-----------10-10-10-10-----------|
D|--8-8-8-8--8-8-8-8--10-10-10-10--6-6-6-6--|   x4
A|--6-6-6-6--8-8-8-8--8--8--8--8---6-6-6-6--|
D|-----------8-8-8-8---------------6-6-6-6--|


Guitar Two (playing along with guitar one)
e|-------------------------------------|
G|-------------------------------------|
G|--77-8-7--777-8-7--777-8-7--777-8-7--|
D|--88-8-8--888-8-8--888-8-8--888-8-8--|   x2
A|-------------------------------------|
D|-------------------------------------|

e|--66-6-6--666-6-6--666-6-6--6-----6---6---6--|
G|------------------------------7/8---8---8----|
G|---------------------------------------------|
D|---------------------------------------------|
A|---------------------------------------------|
D|---------------------------------------------|

e|--66-6-6--666-6-6--666-6-6-------6---6-----6----|
G|-----------------------------7/8---8----8--8p7--|
G|------------------------------------------------|
D|------------------------------------------------|
A|------------------------------------------------|
D|------------------------------------------------|


(2:15) End On...

Guitar One               Guitar Two
e|----------------|    |----------------|
G|----------------|    |----------------|
G|----------------|    |--8~~-----------|
D|--1~~-----------|    |--8~~-----------|
A|--1~~-----------|    |--6~~-----------|
D|--1~~-----------|    |----------------|


It may seem confusing, but it's at least 99% right!
Enjoy!!!! SAVES THE DAY RULES!





Comments


Popular Saves The Day tabs & chords
Rise Bass Tabs
The Way His Collar Falls Chords
You Vandal 2 Chords
All-Star Me 2 Tabs
At Your Funeral (Solo) Tabs
Eulogy Tabs
Freakish 2 Tabs
Let It All Go Tabs
Three Miles Down 2 Tabs
Ups And Downs Tabs


Song lyrics



↑ Back to top | Tablatures and chords are parodies/interpretations of the original songs. You may use it for private study, scholarship, research or language learning purposes only
© 2014 AZChords.com Contact us | Privacy policy | DMCA | Add/correct tabs | Request tabs | Top 50 tabs