>
 >
Lies 1

Lies 1 Bass Tabs

Save Ferris - Lies 1 chords, tabs, tablatures, lyrics

Guitar lessons | Add/correct | Request | Top 50 tabs Artists:  A B C D E F G H I J K L M N O P Q R S T U V W X Y Z 0-9

Lies 1 Bass Tabs – Save Ferris

CD, Sheet music, Poster

Do you like Lies 1? Share with your friends now
Bass TabsBass Tabs v2
another tab from my favorite band, hope u like it, it is my first tab

i know that it isnt 100% right, if u listen after the sax solo u gonna see something a 
different, but i hope it is 95% right

1st riff (00:00:00/00:00:59)
------------------------------|
------------------------------|
---------2-3--3-3-3-2---------|
0--0-2-3--------------3-2-0---|

2nd riff (00:01:00/00:01:04)
-------------------------|
-------------------------|
-------------33--3-22----|
-2-2--2-00--0------------|

after the first time of 2nd riff (00:01:05/00:01:11)
--------------------------|
--------------------------|
-------------33--3-22-5/7-|
-2-2--2-00--0-------------|

2nd riff (00:01:11)
-------------------------|
-------------------------|
-------------33--3-22----|
-2-2--2-00--0------------|

alternate 2nd riff(00:01:18/00:01:25)
-------------------2-----|
-------------2-4-5-------|
-------------------------|
-2-2--2-00--0------------|

1st riff(00:01:25/00:01:58)
----------------------------|
----------------------------|
---------2-3--3-3-3-2-------|
0--0-2-3--------------3-2-0-|

2nd riff (00:01:58/00:02:04)
-------------------------|
-------------------------|
-------------33--3-22----|
-2-2--2-00--0------------|

alternated 2nd riff(00:02:04/00:02:10)
-------------------2-----|
-------------2-4-5-------|
-------------------------|
-2-2--2-00--0------------|

1st riff (00:02:10/00:02:19)
----------------------------|
----------------------------|
---------2-3--3-3-3-2-------|
0--0-2-3--------------3-2-0-|

sax solo (00:02:23/00:02:37)
----------------------------|
----------------------------|
---------2-3--3-3-3-2-------|
0--0-2-3--------------3-2-0-|


(00:02:37/00:02:50)
-------------------------------------------|
-------------------------------------------|
-----2-0-2-0-2-0-222222-4444444-5-0-5-0-77-|
-0-----------------------------------------|

(00:02:50/00:03:06)
----------------------------------------------------------------------|
-------------------22222----------------------------------------------|
-22222-44444-55555--------22222-44444-555-000-555-000-55-00-77-77-7/0-|
----------------------------------------------------------------------|

(00:03:06/00:03:13)
----------|
----------|
-----22-4-|
00-0------|

(00:03:13/00:03:19)
--------------------------------|
--------------------------------|
----22-4---0000-2222-4444-5555--|
00-0----------------------------|

repeat these two parts until the end

2x
----------|
----------|
-----22-4-|
00-0------|

1x
--------------------------------|
--------------------------------|
----22-4---0000-2222-4444-5555--|
00-0----------------------------|





Comments


Popular Save Ferris tabs & chords
Goodbye Bass Tabs
Under 21 Bass Tabs
Build Me Up Buttercup Chords
Build Me Up Buttercup Tabs
Come On Eileen Tabs
Come On Eileen 1 Tabs
The Only Way To Be Tabs
Come On Eileen Ukulele
Im Not Crying For You Ukulele
Mistaken Ukulele


Song lyrics



↑ Back to top | Tablatures and chords are parodies/interpretations of the original songs. You may use it for private study, scholarship, research or language learning purposes only
© 2014 AZChords.com Contact us | Privacy policy | DMCA | Add/correct tabs | Request tabs | Top 50 tabs