» » »

Save Ferris, Goodbye Bass tabs (ver.3)

Artists:  A B C D E F G H I J K L M N O P Q R S T U V W X Y Z # 

Goodbye Bass tabs (ver.3)

Save Ferris Tabs
Rating:
0/5 (0 votes)
Goodbye lessons Tabs too difficult? Try these video lessons and learn fast
                Intro/1stVerse
G|-------------------------------------------------------------------------|
D|-------------------------------------------------------------------------|
A|-12/-5--3--1--0-0--5--3--1--0-0--5--3--1--0-0--5--3--1--0-0--5--3--1--0~-|
E|-------------------------------------------------------------------------|
	
Bridge
G|---------------------------|
D|---------------------------|
A|-1-0--5----1-1-0-0--5------|
E|------------------------5~-|

2ndVerse
G|-----------------------------------------------------------------|
D|-----------------------------------------------------------------|
A|-5--3--1--0-0---5--3--1--0-0---5--3--1--0-0---5--3--0-1-3-1-0-0--|
E|-----------------------------------------------------------------|

G|-----------------------------|
D|-----------------------------|
A|-5-5--1-3-3--0-1-3-1-0-0-0-0-|  x3
E|-----------------------------|

Bridge
G|-----------------------|
D|-----------------------|
A|-1-0--5----1-1-0-0--5--|
E|-----------------------|

Chorus
G|--------------------------------------------------------------|
D|-----7--------------------------------------------------------|
A|-5-8---8------7-7-10-10-7-7-----5-5-8-8-5-5-------4-4-7-7-4-4-|  x5	
E|----------8-8-----------------6---------------5-5-------------|

End of Chorus
G|-------------------------------|
D|---------------2---------------|
A|-----5-----0-3---3---5-5---5-5-|  x2
E|-3-6---6-----------------------|

G|----------------------------------------|
D|----------------------------------------|
A|-----5-------4-7-4-----5-8-5-----7-10-7-|	
E|-3-6---6---5---------6---------8--------|

G|------------------------------------------------------|
D|----------------------------------------------7-5-----|
A|-----5-------4-7-4-----5-8-5----5-8-5-------------8-7-|
E|-3-6---6---5---------6--------6---------5~------------|

3rdVerse
G|-----------------------------|
D|-----------------------------|
A|-5-5--1-3-3--0-1-3-1-0-0-0-0-|  x7
E|-----------------------------|

Bridge
G|----------------------|
D|----------------------|
A|-1-0--5----1-1-0-0--5-|
E|----------------------|

Chorus
G|--------------------------------------------------------------|
D|-----7--------------------------------------------------------|
A|-5-8---8------7-7-10-10-7-7-----5-5-8-8-5-5-------4-4-7-7-4-4-|  x5	
E|----------8-8-----------------6---------------5-5-------------|

End of Chorus
G|-------------------------------|
D|---------------2---------------|
A|-----5-----0-3---3---5-5---5-5-|  x2
E|-3-6---6-----------------------|

G|----------------------------------------|
D|----------------------------------------|
A|-----5-------4-7-4-----5-8-5-----7-10-7-|	
E|-3-6---6---5---------6---------8--------|

G|------------------------------------------------------------------|
D|--------------------------------------------------7-7-5-5---------|
A|-----5-------4-7-4-----5-8-5----5-8-5-----4-7-4-----------8-8-7-7-|
E|-3-6---6---5---------6--------6---------5-------------------------|

Outro 3:11 x4
G|------------------------------------------------------------------------|
D|-----7----------------------------------------------------------7-5-----|
A|-5-8--8----5-8-5----7-10-7----4-7-4----5-8-5-----5-------4-7-4------8-7-|
E|---------6--------8---------5--------6-------3-6---6---5----------------|

G|------------------------------------------------------------------------|
D|-----7----------------------------------------------------------7-5-----|
A|-5-8--8----5-8-5----7-10-7----4-7-4----5-8-5-----5-------4-7-4------8-7-|
E|---------6--------8---------5--------6-------3-6---6---5----------------|

(End of these outros are just samples. you can vary)

End
G|---------|
D|---------|
A|-5-5-5-5-|
E|---------|
            

comments powered by Disqus
↑ Back to top | Save Ferris Bass for Goodbye. Lyrics for acoustic guitar and electric guitar. Tablatures and chords are parodies/interpretations of the original songs. You may use it for private study, scholarship, research or language learning purposes only