» » »

Save Ferris, Goodbye Bass tabs (ver.2)

Artists:  A B C D E F G H I J K L M N O P Q R S T U V W X Y Z # 

Goodbye Bass tabs (ver.2)

Save Ferris Tabs
 Rating:
4/5 (4 votes)
Goodbye lessons Tabs too difficult? Try these video lessons and learn fast
1
                -------------------------------------------------------------------------------
			     Good Bye - Save Ferris
-------------------------------------------------------------------------------


Tuning: Standard (E A D G)

	Introduction 0:00

G|--------------------------------------------------------------------------|
D|--------------------------------------------------------------------------|
A|-12/--5-------------5-------------5-------------5-------------5---------5-|
E|---------8--6--5-5-----8--6--5-5-----8--6--5-5-----8--6--5-5-------5------|
	
	0:35
G|--------------------------------------------------------------------------|
D|--------------------------------------------------------------------------|
A|-----------5-------5--------------5-------------5-------------5-----------|
E|-6-6--5-5------5-------8--6--5-5-----8--6--5-5-----8--6--5-5-----8-6-8-6-5|

	0:50 x4			                   1:00
G|---------------------------|		|-----------------------------------|
D|---------------------------|		|-----------------------------------|
A|-5-5-----------------------|	x4	|----------5------------5-----------|
E|-----6-8-8--5-6-6-5-5-5-5--|		|--6---5------6-6--5-5--------------|

	Pre-Chorus 1:07 x2

G|---------------------------------------------------------------|
D|-------7-------------------------------------------------------|
A|-5--8-----5-----7-7-10-10-7-7-----5-5-8-8-5-5-----4-4-7-7-4-4--|	
E|------------8-8----------------6--------------5-5--------------|

	Chorus 1:17 x3

G|---------------------------------------------------------------|
D|-------7-------------------------------------------------------|
A|-5--8-----5-----7-7-10-10-7-7-----5-5-8-8-5-5-----4-4-7-7-4-4--|	
E|------------8-8----------------6--------------5-5--------------|

	Pre-Verse 1:33 x2

G|---------------------------------------|
D|---------------------------------------|
A|-------5-----------7-----5--5----5--5--|	
E|-3--6-----6--5--8-----8----------------|

	1:43 x1
G|-------------------------------------------------|
D|-------------------------------------------5-----|
A|-------5--------4--7--4-----5--8--5-----7-----7--|	
E|-3--6-----6--5-----------6-----------8-----------|

	x1						     1:56
G|------------------------------------------------------|--------------|
D|------------------------------------------------------|--------------|
A|-------5--------4--7--4-----5--8--5-----5--8--5-------|--------------|
E|-3--6-----6--5-----------6-----------6-----------5----|--5--3--1--0--|

	Verse 1:58 x7

G|---------------------------|		|-----------------------------------|
D|---------------------------|		|-----------------------------------|
A|-5-5-----------------------|		|----------5------------5-----------|
E|-----6-8-8--5-6-6-5-5-5-5--|		|--6---5------6-6--5-5--------------|

	Pre-Chorus 2:30 x2

G|---------------------------------------------------------------|
D|-------7-------------------------------------------------------|
A|-5--8-----5-----7-7-10-10-7-7-----5-5-8-8-5-5-----4-4-7-7-4-4--|	
E|------------8-8----------------6--------------5-5--------------|

	Chorus 2:40 x3

G|---------------------------------------------------------------|
D|-------7-------------------------------------------------------|
A|-5--8-----5-----7-7-10-10-7-7-----5-5-8-8-5-5-----4-4-7-7-4-4--|	
E|------------8-8----------------6--------------5-5--------------|

	Pre-Verse 2:56 x2

G|---------------------------------------|
D|---------------------------------------|
A|-------5-----------7-----5--5----5--5--|	
E|-3--6-----6--5--8-----8----------------|

	3:06 x1
G|-------------------------------------------------|
D|-------------------------------------------5-----|
A|-------5--------4--7--4-----5--8--5-----7-----7--|
E|-3--6-----6--5-----------6-----------8-----------|

	Outro 3:11 x4
G|-------------------------------------------------------------------------|
D|-------------------------------------------------------------------------|
A|------5--------4--7--4-----5--8--5-----5--8--5-----4--7--4---------------|
E|3--6-----6--5-----------6-----------6-----------5----------5-5-3-3-1-1-0-|


| /  slide up
| \  slide down
| h  hammer-on
| p  pull-off
| ~  vibrato
| +  harmonic
| x  Mute note
===============================================================================
            
Submit corrections

comments powered by Disqus
↑ Back to top | Save Ferris Bass for Goodbye. Lyrics for acoustic guitar and electric guitar. 1 Tablatures and chords are parodies/interpretations of the original songs. You may use it for private study, scholarship, research or language learning purposes only