» » »

Savatage, The Rumour Jesus Tabs (ver.1)

Artists:  A B C D E F G H I J K L M N O P Q R S T U V W X Y Z # 

The Rumour Jesus Tabs (ver.1)

Savatage Tabs
 Rating:
4/5 (4 votes)
The Rumour Jesus lessons Tabs too difficult? Try these video lessons and learn fast
                accoustic sections in particular!). Thanks!


Intro/verse 1 (accoustic):

"Jesus, What's the reason for these scars that will never heal...."

Strumming from E to A



Chorus (Distortion):

D5 -s-> E5 E5 E5 D5 E5 D5 E5 F5 -s-> E5		x2

A5 G5

D5 -s-> E5 E5 E5 D5 E5 D5 E5 F5 -s-> E5		x2


A5

-----------------|-------------------------------|--------------------------------|-
-----------------|-------------------------------|--------------------------------|-
-----------------|-------------------------------|--------------------------------|-
-7---------------|-------------------------------|--------------------------------|-
-7---------------|-----------7-6-5---------------|-----------7-6-5----------------|-
-5--3-2-0-3-2-3--|---0-3-2-0-------7-6-5--3-5-3--|---0-3-2-0-------7-6-5--3-5-3---|-



-|-------------------------------|--------------------------------|-
-|-------------------------------|--------------------------------|-
-|-------------------------------|--------------------------------|-
-|-------------------------------|--------------------------------|-
-|-----------7-6-5---------------|-----------7-6-5----------------|-
-|---0-3-2-0-------7-6-5--3-5-3--|---0-3-2-0-------7s0------------|-



Verse 2 (accoustic):

"Jesus, What's the reason, every tear doesn't weigh the same, could you have died in vein..."

Strumming from E to A



Extended Chorus (Distortion):

D5 -s-> E5 E5 E5 D5 E5 D5 E5 F5 -s-> E5		x2

A5 G5

D5 -s-> E5 E5 E5 D5 E5 D5 E5 F5 -s-> E5		x2


A5

-----------------|-------------------------------|--------------------------------|-
-----------------|-------------------------------|--------------------------------|-
-----------------|-------------------------------|--------------------------------|-
-7---------------|-------------------------------|--------------------------------|-
-7---------------|-----------7-6-5---------------|-----------7-6-5----------------|-
-5--3-2-0-3-2-3--|---0-3-2-0-------7-6-5--3-5-3--|---0-3-2-0-------7-6-5--3-5-3---|-



-|-------------------------------|--------------------------------|-
-|-------------------------------|--------------------------------|-
-|-------------------------------|--------------------------------|-
-|-------------------------------|--------------------------------|-
-|-----------7-6-5---------------|-----------7-6-5----------------|-
-|---0-3-2-0-------7-6-5--3-5-3--|---0-3-2-0-------7-6-5-3-5-6-----|-


-|--------------------------------------------------------|-
-|--------------------------------------------------------|-
-|--------------------------------------------------------|-
-|----------------------4-7-9---7-------------------------|-
-|-----5---5-4---5--7--------------9p7p5-7-7-5---5-6------|-
-|---7---7-----7-------------------------------7-----7----|-



-|---------------------------------------------------------------------------------------|-
-|---------------------------------------------------------------------------------------|-
-|---------------------------------------------------------------------------------------|-
-|--------------------------7-9--8-7---7---------7---------------------------------------|-
-|------5---5-4---5-7-7-7-9----------9---9-8-8-9-----9p7p5-7-7-5---5-----5---------------|-
-|--5h7---7-----7------------------------------------------------7---5-7---7p5p3p0-------|-



-|------------------------------------|-
-|------------------------------------|-
-|---------------------7-----9--------|-
-|---5-----7-----9-----7-----9--------|-
-|---5-----7-----9-----5-----7--------|-
-|---3-----5-----7--------------------|-



Verse 3:

"And in the dark we see..."

Accoustic:

Fingerpicking (???)



(Distortion)

E5

D5 -s-> E5 E5 E5 D5 E5 Bb5   D5 -s-> E5 E5 E5 D5 E5 G5      x4


-----------------|-------------------------------|--------------------------------|-
-----------------|-------------------------------|--------------------------------|-
-----------------|-------------------------------|--------------------------------|-
-7---------------|-------------------------------|--------------------------------|-
-7---------------|-----------7-6-5---------------|-----------7-6-5----------------|-
-5--3-2-0-3-2-3--|---0-3-2-0-------7-6-5--3-5-3--|---0-3-2-0-------7-6-5--3-5-3---|-



-|-------------------------------|--------------------------------|-
-|-------------------------------|--------------------------------|-
-|-------------------------------|--------------------------------|-
-|-------------------------------|-----------------------5--------|-
-|-----------7-6-5---------------|-----------7-6-5-------5--------|-
-|---0-3-2-0-------7-6-5--3-5-3--|---0-3-2-0-------7-6-5-3--------|-




Ending:


Accoustic:

E and A strummed
            
Submit corrections

comments powered by Disqus
↑ Back to top | Savatage Tabs for The Rumour Jesus. Lyrics for acoustic guitar and electric guitar. Tablatures and chords are parodies/interpretations of the original songs. You may use it for private study, scholarship, research or language learning purposes only