>
 >
Silk And Steel

Silk And Steel Guitar Tabs

Savatage - Silk And Steel chords, tabs, tablatures, lyrics

Guitar lessons | Add/correct | Request | Top 50 tabs Artists:  A B C D E F G H I J K L M N O P Q R S T U V W X Y Z 0-9

Silk And Steel Guitar Tabs – Savatage

CD, Sheet music, Poster

Do you like Silk And Steel? Share with your friends now
Tabs

SILK AND STEEL
As recorded by Savatage
(From the 1989 Album GUTTER BALLET)

        

Music by Criss Oliva, Paul Silver

Gtr I (E A D G B E) - 'Acoustic w/Fingers'
Gtr II (E A D G B E) - 'Acoustic w/Pick'

 Main Melody
  Moderately Q=96
  A6                A6
 4/4
  Gtr I
  S S S S +S  S S S T T S S S +S  E   S
|-------9-(9)-------9p7-----7-(7)-------|
|-----7---------7-------7---------7-----|
|---9---------9---9-------9-----------9-|
|----------7-------------------7----7---|
|-7-----------------7-------------------|
|---------------------------------------|
  Q        Q        Q          E    E


  T T S S S +S  E   S T T S S S +S  E   S
|-9p7-----7-(7)-------9p7-----7-(7)--------|
|-----7---------7---------7---------7------|
|-------9-----------9-------9-----------9--|
|------------7----7--------------7----7----|
|-7-------------------7--------------------|
|------------------------------------------|
  Q          E    E   Q          E    E


  A6                  A
  +S  S S S +S  S S S  T T S S S +S  E   S
|---------9-(9)-------10p7-----7-(7)-------|
|-------7---------7--------8---------8-----|
|-(9)-9---------9---9--------9-----------9-|
|------------7--------------------7----7---|
|--7-------------------7-------------------|
|------------------------------------------|
   Q         Q         Q          E    E


   T T S S S +S  E   S  T T S S S +S  E   S
|-10p7-----7-(7)-------10p7-----7-(7)-------|
|------8---------8----------8---------8-----|
|--------9-----------9--------9-----------9-|
|-------------7----7---------------7----7---|
|--7--------------------7-------------------|
|-------------------------------------------|
   Q          E    E    Q          E    E


                          F6                F6
 2/4                     4/4
   T T S S S +S  S +E     S S S S +S  S S S T T S S S +S  E   S
|-10p7-----7-(7)--------|-------5-(5)-------5p3-----3-(3)-------|
|------8---------8-(8)\-|-----3---------3-------3---------3-----|
|--------9--------------|---5---------5---5-------5-----------5-|
|-------------7-----7\--|----------3-------------------3----3---|
|--7--------------------|-3-----------------3-------------------|
|-----------------------|---------------------------------------|
   Q          E     E     Q        Q        Q          E    E


                                        F6                F
  T T S S S S E   S T T S S S S E   S   S S S S +S  S S S T T S S S +S  E   S
|-5p3-----3-3-------5p3-----3-3-------|-------5-(5)-------6p3-----3-(3)-------|
|-----3-------3---------3-------3-----|-----3---------3-------4---------4-----|
|-------5---------5-------5---------5-|---5---------5---5-------5-----------5-|
|-----------3---3-------------3---3---|----------3-------------------3----3---|
|-3-----------------3-----------------|-3-----------------3-------------------|
|-------------------------------------|---------------------------------------|
  Q         E   E   Q         E   E     Q        Q        Q          E    E


                                           2/4
  T T S S S +S  E   S T T S S S +S  E   S   T T S S S +S  E   S
|-6p3-----3-(3)-------6p3-----3-(3)-------|-6p3-----3-(3)-6---5-|
|-----4---------4---------4---------4-----|-----4---------------|
|-------5-----------5-------5-----------5-|-------5-------------|
|------------3----3--------------3----3---|---------------------|
|-3-------------------3-------------------|-3----------3----0---|
|-----------------------------------------|---------------------|
  Q          E    E   Q          E    E     Q          E    E


  D                   Dmaj7
 4/4
  +S  S S S +S  S S S T T E   S +S  E   S
|-(5)-----2-(2)---------------------------|
|-------3---------3---3p2-----2-(2)-------|
|-----2---------2---2-----2---------2---2-|
|--0---------0--------------0----0----0---|
|---------------------0-------------------|
|-----------------------------------------|
   Q         Q        E     E    E    E


  T T E   S +S  E   S T T E   S +S  E   S
|------------------------------------------|
|-3p2-----2-(2)-------3p2-----2-(2)-3------|
|-----2---------2---2-----2-------------4--|
|-------0----0----0---------0--------------|
|-0-------------------0----------0----0----|
|------------------------------------------|
  E     E    E    E   E     E    E    E


  D6
  +S  S S S +S  S S S T T S S S +S  E   S
|---------0-(0)-------2h5p2---0-(0)-------|
|-------3---------3---------3-------3-----|
|-(4)-4---------4---4-------------------4-|
|--0---------0--------0----------0----0---|
|-----------------------------------------|
|-----------------------------------------|
   Q         Q        Q          E    E


  T T S S S +S  E   S T T S S S +S  E   S
|-2h5p2---0-(0)-------2h5p2---0-(0)-------|
|-------3-------3-----------3-------3-----|
|-------------------4-------------------4-|
|-0----------0----0---0----------0----0---|
|-----------------------------------------|
|-----------------------------------------|
  Q          E    E   Q          E    E


  D5                Dmaj7
  S S S S +S  S S S T T E   S +S  E   S
|---------------------------------------|
|-----3---------3---3p2-----2-(2)-------|
|---2---2-(2)-2---2-----2---------2---2-|
|----------0--------------0----0----0---|
|-0-----------------0-------------------|
|---------------------------------------|
  Q        Q        E     E    E    E


  T T E   S +S  E   S T T E   S +S  E   S
|------------------------------------------|
|-3p2-----2-(2)-------3p2-----2-(2)-3------|
|-----2---------2---2-----2-------------2s=|
|-------0----0----0---------0----0----0----|
|-0-------------------0--------------------|
|------------------------------------------|
  E     E    E    E   E     E    E    E


  D
  S S S S +S  S S S T T S S S +S  E   S
|-------5-(5)---------------------8-----|
|-----5---------5---5h7p5---5-(5)-------|
|-5-5---------5---5-------7-----------7-|
|----------0-------------------0----0---|
|-0-----------------0-------------------|
|---------------------------------------|
  Q        Q        Q          E    E


  T T S S S +S  E   S T T S S S +S  E   S
|---------------8-------------------8---7-|
|-5h7p5---5-(5)-------5h7p5---5-(5)-------|
|-------7-----------7-------7-------------|
|------------0----0--------------0----0---|
|-0-------------------0-------------------|
|-----------------------------------------|
  Q          E    E   Q          E    E


  G6
  +S  S S S +S  E   S S S S S +S  E   S   S S S S +S  E   S S S S S S S S  S
|-(7)-----5-(5)-------7-----5-(5)-------|-7-----5-(5)-------7-----5---9---10--|
|-------5-------5-------5---------5-----|-----5-------5-------5---------------|
|-----7-------------7-----7-----------7-|---7-------------7-----7-------------|
|------------5----5------------5----5---|----------5----5---------------------|
|--5------------------5-----------------|-5-----------------5-------0---0-----|
|---------------------------------------|-------------------------------------|
   Q         E    E   Q        E    E     Q        E    E   Q       E   E


  Bb6
   +S   S S S +S   S S  S  S S  S S +S  E    S
|-(10)------8-(8)---------10------8-(8)--------|
|---------8----------8-------8----------8------|
|------10---------10---10------10-----------10-|
|--------------8---------------------8----8----|
|---8----------------------8-------------------|
|----------------------------------------------|
    Q          Q           Q         E    E


   S  S S S +S   S S  S  S S  S S +S  E    a S
|-10------8-(8)---------10------8-(8)----------||
|-------8----------8-------8----------8--------||
|----10---------10---10------10-----------10s9-||
|------------8---------------------8----8------||
|--8---------------------8---------------------||
|----------------------------------------------||
   Q         Q           Q         E    E


 1st Solo
  A6                 A6
  Gtr II
   ~~~~~~~~~~~~~~~~~~~~~~~~~~~~~~~~~
   Q        Q         Q          Q           S    e    S  S  S  E    +H
|----------12-------------------12--------|------12---10-----9----------------------------|
|-10-----------------10-------------------|-10-----------------12---(12)------------------|
|-----------------------------------------|-----------------------------------------------|
|-----------------------------------------|-----------------------------------------------|
|-----------------------------------------|-----------------------------------------------|
|-----------------------------------------|-----------------------------------------------|
|
| Gtr I
|  S S S S +S  S S S  T T S S S +S  E   S    T T  S S  S +S  E    S   T T S S S +S  E   S
|--------9-(9)--------9p7-----7-(7)-------|--9p7-------7-(7)----------9p7-----7-(7)-------|
|------7---------7--------7---------7-----|-------7----------7------------7---------7-----|
|----9---------9---9--------9-----------9-|---------9-------------9---------9-----------9-|
|-----------7--------------------7----7---|---------------7-----7----------------7----7---|
|--7------------------7-------------------|--7------------------------7-------------------|
|-----------------------------------------|-----------------------------------------------|
   Q        Q         Q          E    E      Q            E     E     Q          E    E


  A6                  A
   ~~~~~~~~~~~~~       TP         TP
   Q         Q         Q          Q
|-----------12--------10----------9-----------|
|-10------------------------------------------|
|---------------------------------------------|
|---------------------------------------------|
|---------------------------------------------|
|---------------------------------------------|
|
| +S  S S S +S  S S S  T T S S S +S  E   S
|---------9-(9)-------10p7-----7-(7)----------|
|-------7---------7--------8---------8--------|
|-(9)-9---------9---9--------9-----------9----|
|------------7--------------------7----7------|
|--7-------------------7----------------------|
|---------------------------------------------|
   Q         Q         Q          E    E


   TP         TP        TP
   Q          Q         Q          E    S T T
|--7----------5---------3----------2----2h3p2p|
|---------------------------------------------|
|---------------------------------------------|
|---------------------------------------------|
|---------------------------------------------|
|---------------------------------------------|
|
|  T T S S S +S  E   S  T T S S S +S  E   S
|-10p7-----7-(7)-------10p7-----7-(7)---------|
|------8---------8----------8---------8-------|
|--------9-----------9--------9-----------9---|
|-------------7----7---------------7----7-----|
|--7--------------------7---------------------|
|---------------------------------------------|
   Q          E    E    Q          E    E


                          F6                  F6
 2/4                     4/4
   H                      +H.                            S  S S S
|--0--------------------|-(0)-------------------------------6p5---|
|-----------------------|---------------------------------------6-|
|-----------------------|-----------------------------------------|
|-----------------------|-----------------------------------------|
|-----------------------|-----------------------------------------|
|-----------------------|-----------------------------------------|
|
|  T T S S S +S  S +E      S  S S S +S  S S S T T S S S +S  E   S
|-10p7-----7-(7)--------|---------5-(5)-------5p3-----3-(3)-------|
|------8---------8-(8)\-|-------3---------3-------3---------3-----|
|--------9--------------|-----5---------5---5-------5-----------5-|
|-------------7-----7\--|------------3-------------------3----3---|
|--7--------------------|--3------------------3-------------------|
|-----------------------|-----------------------------------------|
   Q          E     E      Q         Q        Q          E    E


  s   S S S +S  e   S +S   S S S +S  S E
|------------------------------------------|
|-5----------------------------------------|
|-----7---5-(5)-7--------------------------|
|-------8-----------5-(5)--7---5-(5)-7-----|
|----------------------------8---------8---|
|------------------------------------------|
|
| T T S S S  S  E   S  T T S S S  S  E   S
|-5p3-----3--3---------5p3-----3--3--------|
|-----3---------3----------3---------3-----|
|-------5-----------5--------5-----------5-|
|------------3----3---------------3----3---|
|-3--------------------3-------------------|
|------------------------------------------|
  Q          E    E    Q          E    E


  F6                  F
  +H.                            E    E
|-----------------------------------------|
|--------------------------------3s===8---|
|-----------------------------------------|
|-----------------------------------------|
|-(8)-------------------------------------|
|-----------------------------------------|
|
|  S  S S S +S  S S S T T S S S +S  E   S
|---------5-(5)-------6p3-----3-(3)-------|
|-------3---------3-------4---------4-----|
|-----5---------5---5-------5-----------5-|
|------------3-------------------3----3---|
|--3------------------3-------------------|
|-----------------------------------------|
   Q         Q        Q          E    E


                                              2/4
   E     S  S  S  S E   +H                     +Q          S  E   S
|-11-------10-------8---(8)------------------|-(8)------------6---5-|
|--------8--------8--------------------------|----------------6---7-|
|--------------------------------------------|----------------------|
|--------------------------------------------|----------------------|
|--------------------------------------------|----------------------|
|--------------------------------------------|----------------------|
|
|  T T S S  S +S  E   S  T T S S S +S  E   S    T T S S S +S  E   S
|--6p3------3-(3)--------6p3-----3-(3)-------|--6p3-----3-(3)-6---5-|
|------4----------4----------4---------4-----|------4---------------|
|--------5------------5--------5-----------5-|--------5-------------|
|--------------3----3---------------3----3---|----------------------|
|--3---------------------3-------------------|--3----------3----0---|
|--------------------------------------------|----------------------|
   Q           E    E    Q          E    E      Q          E    E


  D                     Dmaj7
 4/4
  +E    +S  S +H.
|-(5)---(5)S2-(2)---------------------------|
|-(7)---(7)S3-(3)---------------------------|
|-------------------------------------------|
|-------------------------------------------|
|-------------------------------------------|
|-------------------------------------------|
|
| +S  S  S  S +S  S S S T T E   S +S  E   S
|-(5)-------2-(2)---------------------------|
|--------3----------3---3p2-----2-(2)-------|
|-----2-----------2---2-----2---------2---2-|
|--0-----------0--------------0----0----0---|
|-----------------------0-------------------|
|-------------------------------------------|
   Q           Q        E     E    E    E


                      |---3---|
  Q          S  S S S S   S   S S S  S  S S S
|----------------------------------------------|
|---------------3p2----------------------------|
|-------------------4-2---4---2---2------------|
|-------------------------------5----5--4-2-4--|
|----------------------------------------------|
|----------------------------------------------|
|
| T T E   S +S  E   S T T   E     S +S  E   S
|----------------------------------------------|
|-3p2-----2-(2)-------3p2---------2-(2)-3------|
|-----2---------2---2-------2---------------4--|
|-------0----0----0-------------0--------------|
|-0-------------------0--------------0----0----|
|----------------------------------------------|
  E     E    E    E   E         E    E    E


  D6
   S  S S S +H.
|-----------------------------------------|
|-----------------------------------------|
|-----------------------------------------|
|--5--------------------------------------|
|-----------------------------------------|
|-----3---3-(3)---------------------------|
|
| +S  S S S +S  S S S T T S S S +S  E   S
|---------0-(0)-------2h5p2---0-(0)-------|
|-------3---------3---------3-------3-----|
|-(4)-4---------4---4-------------------4-|
|--0---------0--------0----------0----0---|
|-----------------------------------------|
|-----------------------------------------|
   Q         Q        Q          E    E


  H                   Q          S  S S S
|-----------------------------------------|
|-----------------------------------------|
|-----------------------------------------|
|-----------------------------------------|
|-----------------------------------------|
|-----------------------------------3-2-3-|
|
| T T S S S +S  E   S T T S S S +S  E   S
|-2h5p2---0-(0)-------2h5p2---0-(0)-------|
|-------3-------3-----------3-------3-----|
|-------------------4-------------------4-|
|-0----------0----0---0----------0----0---|
|-----------------------------------------|
|-----------------------------------------|
  Q          E    E   Q          E    E


  D5                 Dmaj7
  E.     S +S  S E   +H
|-----------------------------------------|
|-----------------------------------------|
|-----------------------------------------|
|-----------------------------------------|
|--------2-(2)-5-4---(4)------------------|
|-5---------------------------------------|
|
| S  S S S +S  S S S  T T E   S +S  E   S
|-----------------------------------------|
|------3---------3----3p2-----2-(2)-------|
|----2---2-(2)-2---2------2---------2---2-|
|-----------0---------------0----0----0---|
|-0-------------------0-------------------|
|-----------------------------------------|
  Q         Q         E     E    E    E


  +H.                             Q
|-------------------------------------------|
|-------------------------------------------|
|-------------------------------------------|
|-------------------------------------------|
|-(4)---------------------------------------|
|-------------------------------------------|
|
|  T T E   S +S  E   S T T E   S +S  E   S
|-------------------------------------------|
|--3p2-----2-(2)-------3p2-----2-(2)-3------|
|------2---------2---2-----2-------------2s=|
|--------0----0----0---------0----0----0----|
|--0-------------------0--------------------|
|-------------------------------------------|
   E     E    E    E   E     E    E    E


  D
   |--------6---------|  |---------6---------|
   S  S    S  S  S    S  S   S    S  S  S    S  +Q          E.      T  T
|------------------------------------------------------------------------|
|-----------------------------------10-12---13-(13)--------13------12h13p|
|------------------------9--11---12--------------------------------------|
|------------10-12---14--------------------------------------------------|
|-10-12---14-------------------------------------------------------------|
|------------------------------------------------------------------------|
|
|  S    S     S    S    +S     S     S    S      T T S S S +S  E    S
|------------------5----(5)------------------------------------8---------|
|-------------5----------------------5-----------5h7p5---5-(5)-----------|
|--5----5----------------------5----------5------------7------------7----|
|------------------------0----------------------------------0----0-------|
|--0---------------------------------------------0-----------------------|
|------------------------------------------------------------------------|
   Q                     Q                       Q          E    E


   S    S  S  S  S   S  S  S  S    S  S  S  S   S  S  S
|----------------------------------------------10--------|
|-12---10-12-13-12--10-12----10---12-13-12-13-----13-12--|
|-------------------------12-----------------------------|
|--------------------------------------------------------|
|--------------------------------------------------------|
|--------------------------------------------------------|
|
|  T T  S  S  S +S   E     S  T T  S  S  S +S   E     S
|--------------------8--------------------------8-----7--|
|--5h7p=5-----5-(5)-----------5h7p=5-----5-(5)-----------|
|----------7---------------7----------7------------------|
|----------------0------0-------------------0------0-----|
|--0--------------------------0--------------------------|
|--------------------------------------------------------|
   Q             E      E     Q             E      E


  G6
   S   S  S  S  S  S  S  S  S  S  S S  S   S  S  S
|--------10--------8-------10-------8--------10----|
|-10s=12----12s10----10s12----12s10---10s=12----12s|
|--------------------------------------------------|
|--------------------------------------------------|
|--------------------------------------------------|
|--------------------------------------------------|
|
| +S   S  S  S +S  E     S  S  S  S S +S   E     S
|-(7)--------5-(5)----------7-------5-(5)----------|
|---------5--------5-----------5-----------5-------|
|------7-----------------7--------7--------------7-|
|---------------5-----5----------------5------5----|
|--5------------------------5----------------------|
|--------------------------------------------------|
   Q            E     E     Q          E      E


   S S  S  S  S   S S  S S  E.     S  S S  S
|----8-------10----------------------12---13--|
|-10---10s12-----12------------------14---15--|
|---------------------12----------------------|
|--------------------------12-----------------|
|---------------------------------------------|
|---------------------------------------------|
|
|  S S  S  S +S   E    S S  S  S S S  S S  S
|--7-------5-(5)---------7-------5----9---10--|
|-------5---------5---------5-----------------|
|----7-----------------7-------7--------------|
|-------------5-----5-------------------------|
|--5---------------------5---------0----0-----|
|---------------------------------------------|
   Q          E     E    Q         E    E


  Bb6
                                  TP
   +H                      +E     Q.
|-(13)--------------------(13)---13---------------|
|-(15)--------------------(15)--------------------|
|-------------------------------------------------|
|-------------------------------------------------|
|-------------------------------------------------|
|-------------------------------------------------|
|
|  +S   S S S +S   S S  S   S  S  S  S +S  E    S
|-(10)------8-(8)----------10--------8-(8)--------|
|---------8----------8---------8-----------8------|
|------10---------10---10--------10------------10-|
|--------------8------------------------8----8----|
|---8-----------------------8---------------------|
|-------------------------------------------------|
    Q          Q            Q           E    E


   W
|-13------------------------------------------||
|---------------------------------------------||
|---------------------------------------------||
|---------------------------------------------||
|---------------------------------------------||
|---------------------------------------------||
|
|  S S  S S +S  E    S  S S  S S +S  E    a S
|-10------8-(8)--------10------8-(8)----------||
|----8----------8---------8----------8--------||
|------10-----------10------10-----------10s9-||
|------------8----8---------------8----8------||
|--8--------------------8---------------------||
|---------------------------------------------||
   Q         E    E     Q         E    E


 2nd Solo
  A6                 A6
   ~~~~~~~~~~~~~~~~~~~~~~~~~~~~~~~~~
   Q        Q         Q          Q           S    e    S  S  S  E    +H
|----------12-------------------12--------|------12---10-----9----------------------------|
|-10-----------------10-------------------|-10-----------------12---(12)------------------|
|-----------------------------------------|-----------------------------------------------|
|-----------------------------------------|-----------------------------------------------|
|-----------------------------------------|-----------------------------------------------|
|-----------------------------------------|-----------------------------------------------|
|
|  S S S S +S  S S S  T T S S S +S  E   S    T T  S S  S +S  E    S   T T S S S +S  E   S
|--------9-(9)--------9p7-----7-(7)-------|--9p7-------7-(7)----------9p7-----7-(7)-------|
|------7---------7--------7---------7-----|-------7----------7------------7---------7-----|
|----9---------9---9--------9-----------9-|---------9-------------9---------9-----------9-|
|-----------7--------------------7----7---|---------------7-----7----------------7----7---|
|--7------------------7-------------------|--7------------------------7-------------------|
|-----------------------------------------|-----------------------------------------------|
   Q        Q         Q          E    E      Q            E     E     Q          E    E


  A6                  A
                       TP         TP
   Q         Q         Q          Q
|-----------12--------14---------12-----------|
|-10------------------------------------------|
|---------------------------------------------|
|---------------------------------------------|
|---------------------------------------------|
|---------------------------------------------|
|
| +S  S S S +S  S S S  T T S S S +S  E   S
|---------9-(9)-------10p7-----7-(7)----------|
|-------7---------7--------8---------8--------|
|-(9)-9---------9---9--------9-----------9----|
|------------7--------------------7----7------|
|--7-------------------7----------------------|
|---------------------------------------------|
   Q         Q         Q          E    E


                                             2/4
   TP         TP        TP         TP
   Q          Q         Q          Q           H
|-10----------9---------7----------5--------|--3--------------------|
|-------------------------------------------|-----------------------|
|-------------------------------------------|-----------------------|
|-------------------------------------------|-----------------------|
|-------------------------------------------|-----------------------|
|-------------------------------------------|-----------------------|
|
|  T T S S S +S  E   S  T T S S S +S  E   S    T T S S S +S  S +E
|-10p7-----7-(7)-------10p7-----7-(7)-------|-10p7-----7-(7)--------|
|------8---------8----------8---------8-----|------8---------8-(8)\-|
|--------9-----------9--------9-----------9-|--------9--------------|
|-------------7----7---------------7----7---|-------------7-----7\--|
|--7--------------------7-------------------|--7--------------------|
|-------------------------------------------|-----------------------|
   Q          E    E    Q          E    E      Q          E     E


  F6                  F6
 4/4
  S S S  S  S  S S  S  E.      S +E    +S  S
|---------------------10-------8-(8)---(8)S3--|
|----------------8-12-------------------------|
|--------------9------------------------------|
|----------10---------------------------------|
|-----7-10------------------------------------|
|---8-----------------------------------------|
|
| S S S  S +S  S S  S  T T S S S +S  E     S
|--------5-(5)---------5p3-----3-(3)----------|
|-----3----------3---------3---------3--------|
|---5----------5----5--------5-------------5--|
|-----------3---------------------3-----3-----|
|-3--------------------3----------------------|
|---------------------------------------------|
  Q         Q          Q          E     E


                                              F6                  F6
  +S   S S S +S  S S S +S   S S S +S  S E     +H                  S   S S S  S  S S S
|-(3)--5---3-(3)-5---3-(3)--5---3-(3)-5-----|---------------------------5-6-----6---8-|
|--------6---------6----------6---------6---|-(6)---------------------8---------------|
|-------------------------------------------|-----------------------------------------|
|-------------------------------------------|-----------------------------------------|
|-------------------------------------------|-----------------------------------------|
|-------------------------------------------|-----------------------------------------|
|
|  T T S S S  S  E   S  T T S S S  S  E   S    S  S S S +S  S S S T T S S S +S  E   S
|--5p3-----3--3---------5p3-----3--3--------|---------5-(5)-------6p3-----3-(3)-------|
|------3---------3----------3---------3-----|-------3---------3-------4---------4-----|
|--------5-----------5--------5-----------5-|-----5---------5---5-------5-----------5-|
|-------------3----3---------------3----3---|------------3-------------------3----3---|
|--3--------------------3-------------------|--3------------------3-------------------|
|-------------------------------------------|-----------------------------------------|
   Q          E    E    Q          E    E      Q         Q        Q          E    E


  +H.                             Q
|-(8)-----------------------------------------|
|---------------------------------------------|
|---------------------------------------------|
|---------------------------------------------|
|---------------------------------------------|
|---------------------------------------------|
|
|  T T S S S +S  E   S T T S S S +S  E   S
|--6p3-----3-(3)-------6p3-----3-(3)----------|
|------4---------4---------4---------4--------|
|--------5-----------5-------5-----------5----|
|-------------3----3--------------3----3------|
|--3-------------------3----------------------|
|---------------------------------------------|
   Q          E    E   Q          E    E


                        D                     Dmaj7
 2/4                   4/4
  T T S S S +S  E   S   +S  S  S  S +S  S S S T T E   S +S  E   S
|-6p3-----3-(3)-6---5-|-(5)-------2-(2)---------------------------|
|-----4---------------|--------3----------3---3p2-----2-(2)-------|
|-------5-------------|-----2-----------2---2-----2---------2---2-|
|---------------------|--0-----------0--------------0----0----0---|
|-3----------3----0---|-----------------------0-------------------|
|---------------------|-------------------------------------------|
| Q          E    E      Q           Q        E     E    E    E
|
| Q          S  E   S   +E    +S  S +H.
|---------------6---5-|-(5)---(5)S2-(2)---------------------------|
|---------------8---7-|-(7)---(7)S3-(3)---------------------------|
|---------------------|-------------------------------------------|
|---------------------|-------------------------------------------|
|---------------------|-------------------------------------------|
|---------------------|-------------------------------------------|


  T T E   S +S  E   S T T E   S +S  E   S
|-----------------------------------------|
|-3p2-----2-(2)-------3p2-----2-(2)-3-----|
|-----2---------2---2-----2-------------4-|
|-------0----0----0---------0-------------|
|-0-------------------0----------0----0---|
|-----------------------------------------|
| E     E    E    E   E     E    E    E
|
| H                   S   S S S  S  S S S
|-----------------------------------------|
|---------------------------------------5-|
|-----------------------------------6-7---|
|---------------------------4-5--7--------|
|-------------------------5---------------|
|-----------------------------------------|


  D6
  E.     S +S  T T E   +H
|-------------------------------------------|
|-------------------------------------------|
|-7------6-(6)h7p6p4---(4)------------------|
|-------------------------------------------|
|-------------------------------------------|
|-------------------------------------------|
|
| S  S S S +S  S   S S  T T S S S +S  E   S
|--------0-(0)----------2h5p2---0-(0)-------|
|------3-----------3----------3-------3-----|
|-4--4---------4-----4--------------------4-|
|-0---------0-----------0----------0----0---|
|-------------------------------------------|
|-------------------------------------------|
  Q         Q           Q          E    E


  +H                   S   S S S  S  S S S
|-------------------------------------------|
|---------------------------------5---------|
|-(4)----------------------4-6-7-----7-6-4--|
|-------------------------------------------|
|-------------------------------------------|
|-------------------------------------------|
|
|  T T S S S +S  E   S T T S S S +S  E   S
|--2h5p2---0-(0)-------2h5p2---0-(0)--------|
|--------3-------3-----------3-------3------|
|--------------------4-------------------4--|
|--0----------0----0---0----------0----0----|
|-------------------------------------------|
|-------------------------------------------|
   Q          E    E   Q          E    E


  D5                 Dmaj7
  E.     S +S  S E   +H
|-----------------------------------------|
|-----------------------------------------|
|-6------4-(4)----------------------------|
|--------------7--------------------------|
|----------------5---(5)------------------|
|-----------------------------------------|
|
| S  S S S +S  S S S  T T E   S +S  E   S
|-----------------------------------------|
|------3---------3----3p2-----2-(2)-------|
|----2---2-(2)-2---2------2---------2---2-|
|-----------0---------------0----0----0---|
|-0-------------------0-------------------|
|-----------------------------------------|
  Q         Q         E     E    E    E


  +W
|------------------------------------------|
|------------------------------------------|
|------------------------------------------|
|------------------------------------------|
|-(5)--------------------------------------|
|------------------------------------------|
|
|  T T E   S +S  E   S T T E   S +S  E   S
|------------------------------------------|
|--3p2-----2-(2)-------3p2-----2-(2)-3-----|
|------2---------2---2-----2-------------2-|
|--------0----0----0---------0----0----0---|
|--0-------------------0-------------------|
|------------------------------------------|
   E     E    E    E   E     E    E    E


  D
                                                                   |----3----|
  T T T T  T T T  T  T  T  T T T  T  T  T  a  T  T  T   T   T  T   T    T    T   S   S  E
|----------------------------------------------------------10-12h(13)p(12)p(10)--------------|
|-----------------------------------10-10-12-13-10-12h(13)----------------------13--12-10----|
|----------------------------7-9s12----------------------------------------------------------|
|--------------------7--9-10-----------------------------------------------------------------|
|------------7-9-10--------------------------------------------------------------------------|
|---5h7h8s10---------------------------------------------------------------------------------|
|
| S   S    S   S    +S     S   S     S        T  T  S       S      S            +S   E    S
|--------------5----(5)--------------------------------------------------------------8-------|
|----------5-------------------5--------------5h=7p=5--------------5------------(5)----------|
|-5---5--------------------5---------5----------------------7-----------------------------7--|
|--------------------0-----------------------------------------------------------0------0----|
|-0-------------------------------------------0----------------------------------------------|
|--------------------------------------------------------------------------------------------|
  Q                  Q                        Q                                  E      E


   ~~~~~~~~~~~~~~~~~~~~~
                            |--3--|  |---3---|        |---3---|  |--3---|
   Q.               +T   T  T  T  T  T  T    T  T  T  S  S    S  T   T  T  E    S
|--------------------------------10-12h13p==12p10------------10-13p=12p10---------|
|-10---------------(10)-10h12h13------------------13-10h12----------------13---12-|
|---------------------------------------------------------------------------------|
|---------------------------------------------------------------------------------|
|---------------------------------------------------------------------------------|
|---------------------------------------------------------------------------------|
|
|  T T S S S +S  E          S        T    T     S     S    S    +S         E    S
|----------------8---------------------------------------------------------8----7-|
|--5h7p5---5-(5)---------------------5h===7p====5----------5----(5)---------------|
|--------7------------------7-------------------------7---------------------------|
|-------------0------0-------------------------------------------0-----------0----|
|--0---------------------------------0--------------------------------------------|
|---------------------------------------------------------------------------------|
   Q          E      E               Q                           E           E


  G6
   +E.      S  +S   S  E    +H
|------------------10----------------------------|
|-(12)-----13-(13)-------------------------------|
|---------------------12---(12)------------------|
|------------------------------------------------|
|------------------------------------------------|
|------------------------------------------------|
|
|  +S  S S  S  +S   E    S   S  S S S +S  E   S
|--(7)------5--(5)-----------7------5-(5)--------|
|--------5----------5-----------5---------5------|
|------7-----------------7--------7-----------7--|
|---------------5------5---------------5----5----|
|---5------------------------5-------------------|
|------------------------------------------------|
    Q           E      E     Q         E    E


   +W
|---------------------------------------|
|---------------------------------------|
|-(12)----------------------------------|
|---------------------------------------|
|---------------------------------------|
|---------------------------------------|
|
|   S  S S S +S  E   S S S S S S S S  S
|---7------5-(5)-------7-----5---9---10-|
|--------5-------5-------5--------------|
|------7-------------7-----7------------|
|-------------5----5--------------------|
|---5------------------5-------0---0----|
|---------------------------------------|
    Q         E    E   Q       E   E


  Bb6
    Q          S   S  S  S  S  S  S  S  S   E.
|--------------------------------------10--13--------||
|-----------------------------------11---------------||
|--------------------------------10------------------||
|---------------------------8-12---------------------||
|------------------------8---------------------------||
|------------------6-10------------------------------||
|
|  +S   S S S +S   S  S  S  S  S  S  S +S   E     S
|-(10)------8-(8)----------10--------8-(8)-----------||
|---------8-----------8--------8------------8--------||
|------10---------10----10-------10--------------10--||
|--------------8------------------------8------8-----||
|---8-----------------------8------------------------||
|----------------------------------------------------||
    Q          Q            Q           E      E


   Q         Q          Q         Q
|-----------13-------------------13---------|
|-11-------------------11-------------------|
|-------------------------------------------|
|-------------------------------------------|
|-------------------------------------------|
|-------------------------------------------|
|
|  S S  S S +S  E    S  S S  S S +S  E    S
|-10------8-(8)--------10------8-(8)--------|
|----8----------8---------8----------8------|
|------10-----------10------10-----------10-|
|------------8----8---------------8----8----|
|--8--------------------8-------------------|
|-------------------------------------------|
   Q         E    E     Q         E    E


   Q         Q          Q         Q
|-----------13-------------------13----------|
|-11-------------------11--------------------|
|--------------------------------------------|
|--------------------------------------------|
|--------------------------------------------|
|--------------------------------------------|
|
|  S S  S S +S  E    S  S S  S S +S  E    S
|-10------8-(8)--------10------8-(8)---------|
|----8----------8---------8----------8-------|
|------10-----------10------10-----------10--|
|------------8----8---------------8----8-----|
|--8--------------------8--------------------|
|--------------------------------------------|
   Q         E    E     Q         E    E


  H.=H
   Q         Q          Q         Q             W
|-----------13-------------------13---------|--------------*|
|-11-------------------11-------------------|--------------*|
|-------------------------------------------|--------------*|
|-------------------------------------------|--------------*|
|-------------------------------------------|--------------*|
|-------------------------------------------|--------------*|
|
|  S S  S S +S  E    S  S S  S S +S  E    S    +E  E H.
|-10------8-(8)--------10------8-(8)--------|--------9-----*|
|----8----------8---------8----------8------|--------7-----*|
|------10-----------10------10-----------10-|-(10)---9-----*|
|------------8----8---------------8----8----|--(8)---------*|
|--8--------------------8-------------------|--------7-----*|
|-------------------------------------------|--------------*|
   Q         E    E     Q         E    E       +E  E H.



Duration Legend
---------------
W - whole; H - half; Q - quarter; E - 8th; S - 16th; T - 32nd; X - 64th; a - acciaccatura
+ - note tied to previous; . - note dotted; .. - note double dotted
Uncapitalized letters represent notes that are staccato (1/2 duration)
Irregular groupings are notated above the duration line
Duration letters will always appear directly above the note/fret number it represents the
duration for.  Duration letters with no fret number below them represent rests.  Multi-
bar rests are notated in the form Wxn, where n is the number of bars to rest for.  Low
melody durations appear below the staff

Tablature Legend
----------------
 h   - hammer-on
 p   - pull-off
 b   - bend
 pb  - pre-bend
 r   - bend release (if no number after the r, then release immediately)
 /\  - slide into or out of (from/to "nowhere")
 s   - legato slide
 S   - shift slide
 - natural harmonic
[n]  - artificial harmonic
n(n) - tapped harmonic
 ~   - vibrato
 tr  - trill
 T   - tap
 TP  - trem. picking
 PM  - palm muting
\n/  - tremolo bar dip; n = amount to dip
 \n  - tremolo bar down
 n/  - tremolo bar up
/n\  - tremolo bar inverted dip
 =   - hold bend; also acts as connecting device for hammers/pulls
 <> - volume swell (louder/softer)
 x   - on rhythm slash represents muted slash
 o   - on rhythm slash represents single note slash

Misc Legend
-----------
 |  - bar
||  - double bar
||o - repeat start
o|| - repeat end
*|  - double bar (ending)
 :  - bar (freetime)
 $  - Segno
 &  - Coda
Tempo markers -  = BPM(8/16=s8/s16), where s8 = swing 8ths, s16 = swing 16ths





Comments


Popular Savatage tabs & chords
Mozart And Madness 2 Bass Tabs
White Witch Bass Tabs
Complaint In The System Tabs
Dead Winter Dead Tabs
Gutter Ballet Tabs
Jesus Saves 2 Tabs
Overture Tabs
Sleep 1 Tabs
Stay 1 Tabs
The Dungeons Are Calling Tabs


Song lyrics



↑ Back to top | Tablatures and chords are parodies/interpretations of the original songs. You may use it for private study, scholarship, research or language learning purposes only
© 2014 AZChords.com Contact us | Privacy policy | DMCA | Add/correct tabs | Request tabs | Top 50 tabs