>
 >
Shotgun Innocence Intro

Shotgun Innocence Intro Guitar Tabs

Savatage - Shotgun Innocence Intro chords, tabs, tablatures, lyrics

Guitar lessons | Add/correct | Request | Top 50 tabs Artists:  A B C D E F G H I J K L M N O P Q R S T U V W X Y Z 0-9

Shotgun Innocence Intro Guitar Tabs – Savatage

CD, Sheet music, Poster

Do you like Shotgun Innocence Intro? Share with your friends now
Bass TabsTabs
Tempo = 120
Electric Guitar 1

Legend
L - tied note
x - dead note
h - hammer on/pull off
b - bend
s - slide
~ - vibrato
g - ghost note
> - accentuated note
t - trill
M - palm mute
. - staccato
P - popping (bass)
S - slapping (bass)
+ - tapping
W - wide vibrato
< - fade in
w - whammy bar
= - tremolo picking
v - brush up
^ - brush down
V - pick stroke up
n - pick stroke down

                                                        
D ||---------------------------------------------------|
A ||---------------------------------------------------|
F ||o--------------------------------------------------|
C ||o0h-2--------------0--2--------------2-------------|
G ||-0h-2--------------0h-2--------------2-------------|
D ||-------0M-0M-0M-0M-------0M-0M-0M-0M-------0M-0M---|

                                                     
----------------------------------------------------|
----------------------------------------------------|
----------------------------------------------------|
--0h-2--------------0--2--------------2-------------|
--0h-2--------------0h-2--------------2-------------|
--------0M-0M-0M-0M-------0M-0M-0M-0M-------0M-0M---|

                                                     
----------------------------------------------------|
----------------------------------------------------|
----------------------------------------------------|
--0h-2--------------0--2--------------2-------------|
--0h-2--------------0h-2--------------2-------------|
--------0M-0M-0M-0M-------0M-0M-0M-0M-------0M-0M---|

                                                      
--3------------------------------------------------|||
--3------------------------------------------------|||
--0-----------------------------2b----2g-2b-0-----o|||
--0-----------2--------------------------------2--o|||
--------------0-----2------------------------------|||
--3-----------------0------------------------------|||

                                                    
--------------------------------------------------||
--------------------------------------------------||
o------------------------------------------------o||
o0h-2--------------0--2--------------2-----------o||
-0h-2--------------0h-2--------------2------------||
-------0M-0M-0M-0M-------0M-0M-0M-0M-------0M-0M--||

                                             W         
--3-------------------------|-------|----------------||
--3-------------------------|-------|----------------||
--0-------------------------|-------|--------2-------||
--0-----2-------------------|--2L---|--2L-2----------||
--------0--2L----2L----2----|--0L---|--0L-0----------||
--3--------0-----0g---------|-------|-----------12s--||

                                                            
--------------------------------------------------||-------|
--------------------------------------------------||-------|
o------------------------------------------------o||-------|
o0h-2--------------0--2--------------2-----------o||--2L---|
-0h-2--------------0h-2--------------2------------||--0L---|
-------0M-0M-0M-0M-------0M-0M-0M-0M-------0M-0M--||-------|

                                                     
--------------------------2-------------------------|
-----------------------------2----------------------|
--------------------------------4--4M-4M-4M-4M-4M---|
--2-----------------------------4--4M-4M-4M-4M-4M---|
--0-----------------------------2--2M-2M-2M-2M-2M---|
--------------------------------2--2M-2M-2M-2M-2M---|

                                     =  =  =  =
----------------------------------|--7--9--10-12---||
----------------------------------|----------------||
--4M-4M-4M-4M-4--4M-4M----4-------|----------------||
--4M-4M-4M-4M-4M-4M-4M----4-------|----------------||
--2M-2M-2M-2M-2M-2M-2M----2-------|----------------||
--2M-2M-2M-2M-2M-2M-2-----2-------|----------------||


------------------------------|
------------------------------|
o-----------------------------|
o9--------7-------------------|
-7--------5-------------------|
----0M-0M----0M-0M-0M-0M------|


----------------------------------------------------|
----------------------------------------------------|
----------------------------------------------------|
--7-------------------------------------------------|
--4-----------------7-------------------------------|
--------0M----0M----5-----------3s-5--3-----0-------|


-------------------------------|---------------------------|||
-------------------------------|---------------------------|||
-------------------------------|--------0-----------0-----o|||
--9--------7-------------------|-----2-----0-----0-----0--o|||
--7--------5-----------3-------|--3-----------2------------|||
-----0M-0M----0M-0M-0M---------|---------------------------|||


---------------------------------------------------------------------------|
---------------------------------------------------------------------------|
o--------------------------------------------------------------------------|
o------------------------------5-------------------------------------------|
-------------7-----7--------------7--6--5----------------------------------|
-0--------------0M-------------------------7--6--3-------------------------|


---------------------------------------------------------||----|----||
--------------------------------------------8~-----------||----|----||
--------------------------------------------7~----------o||----|----||
--------------------------------5-----------0~----------o||----|----||
--------------7-----7--------------7--6--5---------------||----|----||
--0--------------0---------------------------------------||----|----||





Comments


Popular Savatage tabs & chords
Sammy And Tex Bass Tabs
White Witch Bass Tabs
A Little Too Far Tabs
Awaken Tabs
Christmas Eve Tabs
Christmas Eve 1 Tabs
Complaint In The System Tabs
Edge Of Thorns 3 Tabs
Sirens Tabs
Watching You Fall Tabs


Song lyrics



↑ Back to top | Tablatures and chords are parodies/interpretations of the original songs. You may use it for private study, scholarship, research or language learning purposes only
© 2014 AZChords.com Contact us | Privacy policy | DMCA | Add/correct tabs | Request tabs | Top 50 tabs