>
 >
Sammy And Tex

Sammy And Tex Bass Tabs

Savatage - Sammy And Tex chords, tabs, tablatures, lyrics

Guitar lessons | Add/correct | Request | Top 50 tabs Artists:  A B C D E F G H I J K L M N O P Q R S T U V W X Y Z 0-9

Sammy And Tex Bass Tabs – Savatage

CD, Sheet music, Poster

Do you like Sammy And Tex? Share with your friends now
Bass Tabs
|----------------------------------------|
|----------------Savatage----------------|
|-------------Sammy-and-Tex--------------|
|--------------Streets-(1991)------------|
|----------------------------------------|


Tempo: BPM 210 (approx.)
Tuning: Standard (E A D G)


------
Riffs:
------

Pre-Verse

     Q  E E E E E E   E E E E E E E E   Q  E E E E E E   E E E E H
G|-|----------------|-----------------|----------------|-----------|
D|4|----------------|-----------------|----------------|-----------|
A|4|-7----7---5---7-|---5-7---8---7---|-7----7---5---7-|---5-7-----|
E|-|----0---0---0---|-0-----0---0---0-|----0---0---0---|-0-----0-3-|


Verse 1

      Q  E E E Q   E Q  3x E E E E H
G|-|---------------------|------------|
D|4|o-------------------o|------------|
A|4|o-5--7--------------o|---8-7---10-|
E|-|-------0-0-0---0-0---|-0-----0----|
             |-3-| |-3-|

Verse 2

   Q  E E E E E E   Q  E E E E E E   Q  E E E E E E   E E E E E E E E
G|----------------|----------------|----------------|-----------------|
D|----------------|----------------|----------------|-----------------|
A|----0-0-0-0-0-0-|-3--0-0-0-0-0-0-|-3--0-0-0-0-0-0-|-0-3-0-0-3-0-0-0-|
E|-3--------------|----------------|----------------|-----------------|


Verse 3

   Q  E E E E E E   Q  E E E E E E   Q  E E E E E E   E E E E E E E E     E E E E E E
G|----------------|----------------|----------------|-----------------|-|-------------|
D|----------------|----------------|----------------|-----------------|3|-------------|
A|----0-0-0-0-0-0-|-3--0-0-0-0-0-0-|----0-0-0-0-0-0-|-6-5---6-----6-5-|4|---6-----6-6-|
E|-3--------------|----------------|-3--------------|-----0---0-0-----|-|-0---0-0-----|


Chorus 

     W   H  H    Q  E E E Q   E Q  2x W   H  H
G|-|---|------|---------------------|---|------|
D|4|---|------|o-------------------o|---|------|
A|4|---|------|o-5--7--------------o|---|------|
E|-|-5-|-3--2-|-------0-0-0---0-0---|-5-|-3--2-|
                        |-3-| |-3-|

Break/Outro

     Q  H.  
G|-|------|
D|4|------|
A|4|----R-|
E|-|-0----|


Interlude A

     Q  E E E E E E   E E E E E E E E   Q  E E E E E E   E E E E E E E E
G|-|----------------|-----------------|----------------|-----------------|
D|4|----------------|-----------------|----------------|-----------------|
A|4|-2--2-2-2-2-2-2-|-2-2-2-2-2-2-2-2-|-1--1-1-1-1-1-1-|-1-1-1-1-1-1-1-1-|
E|-|----------------|-----------------|----------------|-----------------|


Interlude B

     Q  E E E E E E   E E E E E E E E   Q  E E E E E E   E E E E E E E E
G|-|----------------|-----------------|----------------|-----------------|
D|4|----------------|-----------------|----------------|-----------------|
A|4|-2--2-2-2-2-2-2-|-2-2-2-2-2-2-2-2-|-4--4-4-4-4-4-4-|-4-4-4-4-4-4-4-4-|
E|-|----------------|-----------------|----------------|-----------------|


then
   
     Q  E E E E E E   E E E E E E E E 
G|-|----------------|-----------------|
D|4|----------------|-----------------|
A|4|-3--3-3-3-3-3-3-|-3-3-3-3-3-3-3-3-|
E|-|----------------|-----------------|


Interlude C

     E E E E E E E E   E E E E E E E E   E E E E E E E E   E E E E E  E  E  E
G|-|-----------------|-----------------|-----------------|---------------------| it seems
D|4|-----------------|-----------------|-----------------|---------------------| this riff
A|4|-3-3-3-3-4-4-4-4-|-5-5-5-5-6-6-6-6-|-7-7-7-7-8-8-8-8-|-9-9-9-9-10-10-10-10-| becomes a little
E|-|-----------------|-----------------|-----------------|---------------------| bit faster


Interlude D

     Q  E E E Q   E Q    Q  E E E Q   E Q    Q  E E E Q   E Q    E E E E E E E E
G|-|-------------------|-------------------|-------------------|-----------------|
D|4|-------------------|-------------------|-------------------|-----------------|
A|4|-5--7--------------|-8--7--------------|-5--7--------------|---8-7---8-7-----|
E|-|------0-0-0---0-0--|------0-0-0---0-0--|------0-0-0---0-0--|-0-----0-----0-0-|
            |-3-| |-3-|         |-3-| |-3-|         |-3-| |-3-|

then

      Q  E E E Q   E Q  3x E E E E E E E E
G|-|---------------------|-----------------|
D|4|o-------------------o|-----------------|
A|4|o-6--6--------------o|---6-6---6-6-----|
E|-|-------0-0-0---0-0---|-0-----0-----0-0-|
             |-3-| |-3-|

----------
Structure:
----------

Pre-Verse    2x
Verse 1      2x
Verse 2      1x
Verse 1      1x
Chorus       1x

Break        1x

Pre-Verse    2x
Verse 1      2x
Verse 3      1x
Verse 1      1x
Chorus       1x

Break        1x

Pre-Verse    2x
Interlude A  2x
Interlude B  1x
Interlude C  1x
Interlude D  2x
Chorus       1x
Pre-Verse    2x
Verse 1      4x
Chorus       1x
Outro        1x


-------------
Description:
-------------
W     - whole notes
H     - half notes
Q     - quarter notes
E     - 8th notess
S     - 16th notes
.     - note dotted (e.g. "E." or "Q.")
|-x-| - tuplet

|4|
|4| - Time Signature (e.g. stands for 4/4)

|o  - repeat start
o|  - repeat end





Comments


Popular Savatage tabs & chords
Awaken Bass Tabs
Chance Bass Tabs
Gutter Ballet Bass Tabs
A Little Too Far Tabs
All That I Bleed 1 Tabs
Dead Winter Dead Tabs
Morning Sun Tabs
Shotgun Innocence Intro Tabs
The Rumour Jesus Tabs
A Little Too Far Ukulele


Song lyrics



↑ Back to top | Tablatures and chords are parodies/interpretations of the original songs. You may use it for private study, scholarship, research or language learning purposes only
© 2014 AZChords.com Contact us | Privacy policy | DMCA | Add/correct tabs | Request tabs | Top 50 tabs