>
 >
Prelude To Madness

Prelude To Madness Guitar Tabs

Savatage - Prelude To Madness chords, tabs, tablatures, lyrics

Guitar lessons | Add/correct | Request | Top 50 tabs Artists:  A B C D E F G H I J K L M N O P Q R S T U V W X Y Z 0-9

Prelude To Madness Guitar Tabs – Savatage

CD, Sheet music, Poster

Do you like Prelude To Madness? Share with your friends now
Bass TabsTabs
This is a great song. love the riff. have a nice day. My name is Michael and i'm from 
Well have fun with this tab. Metal is the shiznit!

E-]-------------------------------------|--------------------------------------|
B-]----14~~~~ --------------------------|----15~~~ ----------------------------|
G-]-------------------------------------|--------------------------------------|
D-]-------------------------------------|--------------------------------------|
A-]-------------------------------------|--------------------------------------|
E-]-------------------------------------|--------------------------------------|
  |                                     |                                      |
E-]-------------------------------------|--------------------------------------|
B-]-------------------------------------|--------------------------------------|
G-]----2--------------------------------|----3---------------------------------|
D-]----2--------------------------------|----3---------------------------------|
A-]----0---0-0--0--0-0--0--0-0--0--0----|----1---1---1---1---1---1-------------|
E-]-------------------------------------|--------------------------------------|

E-]-------------------------------------|--------------------------------------|
B-]----13~~ ----------------------------|----14~~~~~ --------------------------|
G-]-------------------------------------|--------------------------------------|
D-]-------------------------------------|--------------------------------------|
A-]-------------------------------------|--------------------------------------|
E-]-------------------------------------|--------------------------------------|
  |                                     |                                      |
E-]-------------------------------------|--------------------------------------|
B-]-------------------------------------|--------------------------------------|
G-]-------------------------------------|-----2--------------------------------|
D-]----6--------------------------------|-----2--------------------------------|
A-]----6--------------------------------|-----0---0-0--0--0-0--0--0-0--0--0----|
E-]----4---4-4-4-4-4-4-4-4-4-4-4-4-4-4--|--------------------------------------|

E-]-------------------------------------|--------------------------------------|
B-]----18~~~ ---------------------------|-----13~~~ ---------------------------|
G-]-------------------------------------|--------------------------------------|
D-]-------------------------------------|--------------------------------------|
A-]-------------------------------------|--------------------------------------|
E-]-------------------------------------|--------------------------------------|
  |                                     |                                      |
E-]-------------------------------------|--------------------------------------|
B-]-------------------------------------|--------------------------------------|
G-]----4--------------------------------|--------------------------------------|
D-]----4--------------------------------|-----6--------------------------------|
A-]----2-----2---2----2---2---2---------|-----6--------------------------------|
E-]-------------------------------------|-----4---4-4--4--4-4--4--4-4--4--4----|

E-]-------------------------------------|--------------------------------------|
B-]----16~~~ ---------------------------|-----18~~~ ---------------------------|
G-]-------------------------------------|--------------------------------------|
D-]-------------------------------------|--------------------------------------|
A-]-------------------------------------|--------------------------------------|
E-]-------------------------------------|--------------------------------------|
  |                                     |                                      |
E-]-------------------------------------|--------------------------------------|
B-]-------------------------------------|--------------------------------------|
G-]----4--------------------------------|-----6--------------------------------|
D-]----4--------------------------------|-----6--------------------------------|
A-]----2---2-2--2--2-2--2--2-2--2--2----|-----4---4-4--4--4-4--4--4-4--4--4----|
E-]-------------------------------------|--------------------------------------|

E-]----21~~ ----------------------------|-----20~~~~ --------------------------|
B-]-------------------------------------|--------------------------------------|
G-]-------------------------------------|--------------------------------------|
D-]-------------------------------------|--------------------------------------|
A-]-------------------------------------|--------------------------------------|
E-]-------------------------------------|--------------------------------------|
  |                                     |                                      |
E-]-------------------------------------|--------------------------------------|
B-]---10--------------------------------|-----9--------------------------------|
G-]----9--------------------------------|-----8--------------------------------|
D-]----7-----7---7---7---7---7----------|-----6---6-6--6--6-6--6--6-6--6--6----|
A-]-------------------------------------|--------------------------------------|
E-]-------------------------------------|--------------------------------------|

E-]-------------------------------------|--------------------------------------|
B-]----16~~~~ --------------------------|-----19~~~ ---------------------------|
G-]-------------------------------------|--------------------------------------|
D-]-------------------------------------|--------------------------------------|
A-]-------------------------------------|--------------------------------------|
E-]-------------------------------------|--------------------------------------|
  |                                     |                                      |
E-]-------------------------------------|--------------------------------------|
B-]-------------------------------------|--------------------------------------|
G-]-----4-------------------------------|------7-------------------------------|
D-]-----4-------------------------------|------7-------------------------------|
A-]-----2---2-2--2--2-2--2-2-2--2--2----|------5---5-5--5--5-5--5--5-5--5--5---|
E-]-------------------------------------|--------------------------------------|

E-]-------------------------------------|--------------------------------------|
B-]---17~~ -----------------------------|--------------------------------------|
G-]-------------------------------------|--------------------------------------|
D-]-------------------------------------|------3----------------------3--------|
A-]-------------------------------------|--------1---3------------------1--3---|
E-]-------------------------------------|---1----------------------1-----------|
  |                                     |                                      |
E-]-------------------------------------|--------------------------------------|
B-]-------------------------------------|--------------------------------------|
G-]-----5-------------------------------|--------------------------------------|
D-]-----5-------------------------------|--------------------------------------|
A-]-----3-------------------------------|--------------------------------------|
E-]-------------------------------------|--------------------------------------|

E-]----------------------------------------------------------------------------|
B-]----------------------------------------------------------------------------|
G-]----------------------------------------------------------------------------|
D-]-------3---------------------------------3~~~~ -----------------------------|
A-]-------------1----3------------------------------1~~~ --3~~~ ---------------|
E-]---1-------------------------------1~~~~  ----------------------------------|

E-]----------------------------------------------------------------------------|
B-]----------------------------------------------------------------------------|
G-]o---------------------------------------------------------------------------|
D-]o---------------------------------------------------------------------------|
A-]---------------------------2------2-----1------1----0---------0-------------|
E-]-----------0---2---3---5-------3-----------2-----------1--------------------|

E-]----------------------------------------------------------------------------|
B-]----------------------------------------------------------------------------|
G-]---------------------------------------------------------------------------o|
D-]---------------------------------------2-----------------------------------o|
A-]---------------------------2-------2--------5---2---------2---5~~~~ --------|
E-]-----------0---2---3---5-------3---------------------3----------------------|

E-]----------------------------------------------------------------------------|
B-]----------------------------------------------------------------------------|
G-]o---------------------------------------------------------------------------|
D-]o---------------------------2------2----1-------1-----2------2--------------|
A-]----------0---2---3---5--------3------------2------------3------------------|
E-]----------------------------------------------------------------------------|

E-]----------------------------------------------------------------------------|
B-]----------------------------------------------------------------------------|
G-]---------------------------------------------------------------------------o|
D-]----------------------------2-------2----1-------1-------2~~~~~ -----------o|
A-]----------0---2---3---5---------3------------2------------------------------|
E-]----------------------------------------------------------------------------|

E-]----------------------------------------------------------------------------|
B-]----------------------------------------------------------------------------|
G-]----------------------------------------------------------------------------|
D-]----------------------------------------------------------------------------|
A-]---------------------------2------2-----1------1----0---------0-------------|
E-]-----------0---2---3---5-------3-----------2-----------1--------------------|

E-]----------------------------------------------------------------------------|
B-]----------------------------------------------------------------------------|
G-]----------------------------------------------------------------------------|
D-]---------------------------------------2------------------------------------|
A-]---------------------------2-------2--------5---2---------2---5~~~~ --------|
E-]-----------0---2---3---5-------3---------------------3----------------------|

E-]----------------------------------------------------------------------------|
B-]----------------------------------------------------------------------------|
G-]----------------------------------------------------------------------------|
D-]----------------------------------------------------------------------------|
A-]---------------------------2------2-----1------1----0---------0-------------|
E-]-----------0---2---3---5-------3-----------2-----------1--------------------|
  |                                                                            |
E-]----17-16-14------------------------12-11-9---------------------------------|
B-]---------------17-15-14-----------------------12-11-9-----------------------|
G-]-------------------------16-14-13----------------------11-9-----------------|
D-]-------------------------------------------------------------12--11--9------|
A-]----------------------------------------------------------------------------|
E-]----------------------------------------------------------------------------|

E-]----------------------------------------------------------------------------|
B-]----------------------------------------------------------------------------|
G-]----------------------------------------------------------------------------|
D-]---------------------------------------2------------------------------------|
A-]---------------------------2-------2--------5---2---------2---5~~~~ --------|
E-]-----------0---2---3---5-------3---------------------3----------------------|
  |                                                                            |
E-]----------------------------------------------------------------------------|
B-]---------------------------------------9------------------------------------|
G-]---------------------------9-------9-------12---9---------9---12~~~~ -------|
D-]-----------7---9--10--12------10--------------------10----------------------|
A-]----------------------------------------------------------------------------|
E-]----------------------------------------------------------------------------|

E-]----------------------------------------------------------------------------|
B-]----------------------------------------------------------------------------|
G-]----------------------------------------------------------------------------|
D-]----------------------------2------2----1-------1-----2------2--------------|
A-]----------0---2---3---5--------3------------2------------3------------------|
E-]----------------------------------------------------------------------------|

E-]----------------------------------------------------------------------------|
B-]----------------------------------------------------------------------------|
G-]----------------------------------------------------------------------------|
D-]----------------------------2-------2----1-------1-------2~~~~~ ------------|
A-]----------0---2---3---5---------3------------2------------------------------|
E-]----------------------------------------------------------------------------|

E-]----------------------------------------------------------------------------|
B-]----------------------------------------------------------------------------|
G-]----------------------------------------------------------------------------|
D-]----------------------------2------2----1-------1-----2------2--------------|
A-]----------0---2---3---5--------3------------2------------3------------------|
E-]----------------------------------------------------------------------------|
  |                                                                            |
E-]----------------------------------------------------------------------------|
B-]----------------------------------------------------------------------------|
G-]----------17--15--14------------17--15--14----------------14--16--17--16----|
D-]-----------------------17---------------------17--15---17-------------------|
A-]----------------------------------------------------------------------------|
E-]----------------------------------------------------------------------------|

E-]----------------------------------------------------------------------------|
B-]----------------------------------------------------------------------------|
G-]----------------------------------------------------------------------------|
D-]----------------------------2-------2----1-------1-------2~~~~~ ------------|
A-]----------0---2---3---5---------3------------2------------------------------|
E-]----------------------------------------------------------------------------|
  |                                                                            |
E-]----------------------------------------------------------------------------|
B-]----------------------------------------------------------------------------|
G-]---------14---------17--16--14-----------15------15------14~~~~~ -----------|
D-]---------------17-----------------17---------16-----------------------------|
A-]----------------------------------------------------------------------------|
E-]----------------------------------------------------------------------------|

E-]----------------------------------------------------------------------------|
B-]----------------------------------------------------------------------------|
G-]----------------------------------------------------------------------------|
D-]----------------------------------------------------------------------------|
A-]---------------------------2------2-----1------1----0---------0-------------|
E-]-----------0---2---3---5-------3-----------2-----------1--------------------|
  |                                                                            |
E-]---------------------------------------------------14-16-17-16-14-----------|
B-]------------------------------------------14-15-17----------------17--15----|
G-]---------------------------------13-14-16-----------------------------------|
D-]------------------------12-14-16--------------------------------------------|
A-]--------------12-14-16------------------------------------------------------|
E-]-----12-14-16---------------------------------------------------------------|

E-]----------------------------------------------------------------------------|
B-]----------------------------------------------------------------------------|
G-]----------------------------------------------------------------------------|
D-]---------------------------------------2------------------------------------|
A-]---------------------------2-------2--------5---2---------2---5~~~~ --------|
E-]-----------0---2---3---5-------3---------------------3----------------------|
  |                                                                            |
E-]-------------------------------------------------------14-16-17~~~~ --------|
B-]--------------------------------------------14-15-17------------------------|
G-]----------------------------------13-14-16----------------------------------|
D-]-------------------------12-14-16-------------------------------------------|
A-]---------------12-14-16-----------------------------------------------------|
E-]-----12-14-16---------------------------------------------------------------|

E-]----------------------------------------------------------------------------|
B-]----------------------------------------------------------------------------|
G-]----------------------------------------------------------------------------|
D-]----------------------------------------------------------------------------|
A-]---------------------------2------2-----1------1----0---------0-------------|
E-]-----------0---2---3---5-------3-----------2-----------1--------------------|
  |                                                                            |
E-]---------------------------------------------------14-16-17-16-14-----------|
B-]------------------------------------------14-15-17----------------17--15----|
G-]---------------------------------13-14-16-----------------------------------|
D-]------------------------12-14-16--------------------------------------------|
A-]--------------12-14-16------------------------------------------------------|
E-]-----12-14-16---------------------------------------------------------------|

E-]----------------------------------------------------------------------------|
B-]----------------------------------------------------------------------------|
G-]----------------------------------------------------------------------------|
D-]---------------------------------------2------------------------------------|
A-]---------------------------2-------2--------5---2---------2---5~~~~ --------|
E-]-----------0---2---3---5-------3---------------------3----------------------|
  |                                                                            |
E-]-------------------------------------------------------14-16-17~~~~ --------|
B-]--------------------------------------------14-15-17------------------------|
G-]----------------------------------13-14-16----------------------------------|
D-]-------------------------12-14-16-------------------------------------------|
A-]---------------12-14-16-----------------------------------------------------|
E-]-----12-14-16---------------------------------------------------------------|

E-]----------------------------------------------------------------------------|
B-]----------------------------------------------------------------------------|
G-]----------------------------------------------------------------------------|
D-]----------------------------2------2----1-------1-----2------2--------------|
A-]----------0---2---3---5--------3------------2------------3------------------|
E-]----------------------------------------------------------------------------|
  |          h    t    p    h    t    p    h    t    p    h    t    p          |
E-]---------^^^--^^^--^^^--^^^--^^^--^^^--^^^--^^^--^^^--^^^--^^^--^^----------|
B-]-------15---17---19---15---17---19---15---17---19---15---17---19------------|
G-]----------------------------------------------------------------------------|
D-]----------------------------------------------------------------------------|
A-]----------------------------------------------------------------------------|
E-]----------------------------------------------------------------------------|

E-]----------------------------------------------------------------------------|
B-]----------------------------------------------------------------------------|
G-]----------------------------------------------------------------------------|
D-]----------------------------2-------2----1-------1-------2~~~~~ ------------|
A-]----------0---2---3---5---------3------------2------------------------------|
E-]----------------------------------------------------------------------------|
  |      P   h    t    p    h    t    p    h    t    p    h    t               |
E-]-----^^--^^^--^^^--^^^--^^^--^^^--^^^--^^^--^^^--^^^--^^^--^^^--------------|
B-]-------15---17---19---15---17---19---15---17---19---15---17---19------------|
G-]----------------------------------------------------------------------------|
D-]----------------------------------------------------------------------------|
A-]----------------------------------------------------------------------------|
E-]----------------------------------------------------------------------------|

E-]----------------------------------------------------------------------------|
B-]----------------------------------------------------------------------------|
G-]----------------------------------------------------------------------------|
D-]----------------------------2------2----1-------1-----2------2--------------|
A-]----------0---2---3---5--------3------------2------------3------------------|
E-]----------------------------------------------------------------------------|
  |          h    t    p    h    t    p    h    t    p    h    t    p          |
E-]---------^^^--^^^--^^^--^^^--^^^--^^^--^^^--^^^--^^^--^^^--^^^--^^----------|
B-]-------15---17---19---15---17---19---15---17---19---15---17---19------------|
G-]----------------------------------------------------------------------------|
D-]----------------------------------------------------------------------------|
A-]----------------------------------------------------------------------------|
E-]----------------------------------------------------------------------------|

E-]----------------------------------------------------------------------------|
B-]----------------------------------------------------------------------------|
G-]----------------------------------------------------------------------------|
D-]----------------------------2-------2----1-------1-------2~~~~~ ------------|
A-]----------0---2---3---5---------3------------2------------------------------|
E-]----------------------------------------------------------------------------|
  |      P   h    t    p    h    t    p    h    t    p    h    t               |
E-]-----^^--^^^--^^^--^^^--^^^--^^^--^^^--^^^--^^^--^^^--^^^--^^^--------------|
B-]-------15---17---19---15---17---19---15---17---19---15---17---19------------|
G-]----------------------------------------------------------------------------|
D-]----------------------------------------------------------------------------|
A-]----------------------------------------------------------------------------|
E-]----------------------------------------------------------------------------|

E-]----------------------------------------------------------------------------|
B-]----------------------------------------------------------------------------|
G-]----------------------------------------------------------------------------|
D-]----------------------------------------------------------------------------|
A-]---------------------------2------2-----1------1----0---------0-------------|
E-]-----------0---2---3---5-------3-----------2-----------1--------------------|
  |                                                                            |
E-]----------13----------------------------------------------------------------|
B-]----------------------------------------------------------------------------|
G-]----------------------------------------------------------------------------|
D-]----------------------------------------------------------------------------|
A-]----------------------------------------------------------------------------|
E-]----------------------------------------------------------------------------|

E-]----------------------------------------------------------------------------|
B-]----------------------------------------------------------------------------|
G-]----------------------------------------------------------------------------|
D-]---------------------------------------2------------------------------------|
A-]---------------------------2-------2--------5---2---------2---5~~~~ --------|
E-]-----------0---2---3---5-------3---------------------3----------------------|
  |                                                                            |
E-]----------------------------------------------------------------------------|
B-]----------------------------------------------------------------------------|
G-]----------------------------------------------------------------------------|
D-]----------------------------------------------------------------------------|
A-]----------------------------------------------------------------------------|
E-]----------------------------------------------------------------------------|

E-]----------------------------------------------------------------------------|
B-]----------------------------------------------------------------------------|
G-]----------------------------------------------------------------------------|
D-]----------------------------------------------------------------------------|
A-]---------------------------2------2-----1------1----0---------0-------------|
E-]-----------0---2---3---5-------3-----------2-----------1--------------------|
  |                                                                            |
E-]----------13----------------------------------------------------------------|
B-]----------------------------------------------------------------------------|
G-]----------------------------------------------------------------------------|
D-]----------------------------------------------------------------------------|
A-]----------------------------------------------------------------------------|
E-]----------------------------------------------------------------------------|

E-]----------------------------------------------------------------------------|
B-]----------------------------------------------------------------------------|
G-]----------------------------------------------------------------------------|
D-]---------------------------------------2------------------------------------|
A-]---------------------------2-------2--------5---2---------2---5~~~~ --------|
E-]-----------0---2---3---5-------3---------------------3----------------------|
  |                                                                            |
E-]----------------------------------------------------------------------------|
B-]----------------------------------------------------------------------------|
G-]----------------------------------------------------------------------------|
D-]----------------------------------------------------------------------------|
A-]----------------------------------------------------------------------------|
E-]----------------------------------------------------------------------------|

E-]-----------13---12----------------------------------------------------------|
B-]----------------------15--13--12--------------------------------------------|
G-]-----------------------------------14--12-----------------------------------|
D-]-------------------------------------------15--14--12-----14~~~~ -----------|
A-]----------------------------------------------------------------------------|
E-]----------------------------------------------------------------------------|

E-]-----------13---12----------------------------------------------------------|
B-]----------------------15--13--12--------------------------------------------|
G-]-----------------------------------14--12-----------------------------------|
D-]-------------------------------------------15--14--12~~~ -------------------|
A-]----------------------------------------------------------------------------|
E-]----------------------------------------------------------------------------|





Comments


Popular Savatage tabs & chords
24 Hours Ago Bass Tabs
Beyond The Doors Of The Dark Bass Tabs
Shotgun Innocence Intro Bass Tabs
Edge Of Thorns Chords
Watching You Fall Chords
Devastation Tabs
Edge Of Thorns 1 Tabs
Jesus Saves Tabs
Stay 1 Tabs
Believe Ukulele


Song lyrics



↑ Back to top | Tablatures and chords are parodies/interpretations of the original songs. You may use it for private study, scholarship, research or language learning purposes only
© 2014 AZChords.com Contact us | Privacy policy | DMCA | Add/correct tabs | Request tabs | Top 50 tabs