» » »

Savatage, Power Of The Night Bass tabs (ver.1)

Artists:  A B C D E F G H I J K L M N O P Q R S T U V W X Y Z # 

Power Of The Night Bass tabs (ver.1)

Savatage Tabs
Rating:
0/5 (0 votes)
Hard to play? Try these video lessons and learn fast.
                || Band: Savatage                            ||
||                                           ||
||                                           ||
|| Date: 30th October 2003                   ||
||                                           ||
|| Note: For any suggestions don't hesitate  ||
||                                           ||
||                                           ||
||-------------------------------------------||
||-------------------------------------------||
||                                           ||
|| Normal Tuning                             ||
||                                           ||
|| G D A E                                   ||
||                                           ||
||-------------------------------------------||
-----------------------------------------------

Intro
G|-------------------------------------------------|
D|-------------------------------------------------|
A|-3------------1--3------3-3----3-----1--3--------|
E|-----------4----------------------4--------------|

Riff 1
G|------------------------------------------------|
D|-------------------0-1-3------------------------|
A|--3-33-3333--3-3--------------3-33-3333-----1---|
E|-----------------------------------------4------|

Riff 2
G|-------------------------------------------------------------|
D|----------------11-------------------------------------11----|
A|-3-333-333--33--------3-333-333------11--3-333-333--33-------|
E|----------------------------------44-------------------------|

G|----------------------|
D|----------------------|
A|-3-333-333------------|
E|------------44-66-----|


Riff 3
G|------------------------------------------|
D|--------------------1-1-111--3-3-3---1-0--|
A|------------------------------------------|
E|--4-4-444--3-3-333------------------------|

Riff 4
Power of the night...
G|-------------------------------|
D|-33--1--------------1---1---1--|
A|--------1-3-33-333----3---3----| x3
E|-------------------------------|

G|----------------------------|
D|-33-------------------------|
A|-------1--31-31-31--3--665--|
E|-----4----------------------|


Ending stuff
G|-------------------|
D|--------1-0---1----|
A|-33-1-3-----3---3--|
E|-------------------|



==                          TABLATURE EXPLANATION                          ==
----------                            ----------
----5h8--- Hammeron                   ----(8)--- Ghost Note
----------                            ----------
----5p8--- Pulloff                    ---8-[8]-- Tie
----------                            ----------
----5/8--- Slide Up                   -----x---- Dead Note
----------                            ----------
----5\8--- Slide Down                 ----------
----------                            ||------|| Repeat Start & End
----5~~~-- Vibrato                    ||*----*||
----------                            ||*----*||
----------                            ||------||


"When a man lies, he murders 
   some part of the world.
  These are the pale deaths
 which men miscall their lives.
     All this I cannot 
  bear to witness any longer
    Cannot the kingdom of
   salvation take me home?"

      - Cliff Burton
            

comments powered by Disqus
↑ Back to top | Savatage Bass for Power Of The Night. Lyrics for acoustic guitar and electric guitar. Tablatures and chords are parodies/interpretations of the original songs. You may use it for private study, scholarship, research or language learning purposes only