» » »

Savatage, Not What You See Bass tabs (ver.1)

Artists:  A B C D E F G H I J K L M N O P Q R S T U V W X Y Z # 

Not What You See Bass tabs (ver.1)

Savatage Tabs
 Rating:
4/5 (4 votes)
Not What You See lessons Tabs too difficult? Try these video lessons and learn fast
                 (The Most Underrated Band In The World)

 Bass Intro: 6x   Bridge: 1x     
 G--------------|--------------
 D--------------|--------------
 A--------------|-3--3--3-5--5-
 E-3-333--3-3-3-|--------------


 Verse: Repeat Through The Song
 G-----------------------------------------------------------------------
 D-----------------------------------------------------------------------
 A-5----------------3--3--3-5--5--5----------------3--3--3-5--555--5-555-
 E--3--3--3-2--2--2----------------3--3--3-2--2--2-----------------------


 Finish:
 G-------------------------------
 D-------------------------------
 A-5-555--5-555--5-555--5-555-5--
 E-----------------------------3-
            
Submit corrections

comments powered by Disqus
↑ Back to top | Savatage Bass for Not What You See. Lyrics for acoustic guitar and electric guitar. Tablatures and chords are parodies/interpretations of the original songs. You may use it for private study, scholarship, research or language learning purposes only