» » »

Savatage, New York City Don Mean Nothing Bass tabs (ver.1)

Artists:  A B C D E F G H I J K L M N O P Q R S T U V W X Y Z # 

New York City Don Mean Nothing Bass tabs (ver.1)

Savatage Tabs
 Rating:
4/5 (4 votes)
New York City Don	 Mean Nothing lessons Tabs too difficult? Try these video lessons and learn fast
1
                || Band: Savatage                            ||
||                                           ||
||                                           ||
|| Date: 2nd November 2003                   ||
||                                           ||
|| Note: For any suggestions don't hesitate  ||
||                                           ||
||                                           ||
||-------------------------------------------||
||-------------------------------------------||
||                                           ||
|| Normal Tuning                             ||
||                                           ||
|| G D A E                                   ||
||                                           ||
||-------------------------------------------||
-----------------------------------------------

***in' great song man!

1:07 bass enters
G|-----------------------|
D|-----------------------|
A|-------------------5---|x8
E|-00-00-00-00-000-3-----|

G|--------------------------------------------|
D|--------------------------------------------|
A|-0-00-00-00-00-0---5---0-00-00-00-00-0---5--|
E|-----------------3---------------------3----|

G|-----------------------|
D|-----------------------|
A|-------------------5---|x2
E|-00-00-00-00-000-3-----|

G|---------------------------|
D|---------------------------|
A|-3--5--55-55-55-55-55-5555-|
E|---------------------------|

G|-----------------------|
D|-----------------------|
A|-------------------5---|x6
E|-00-00-00-00-000-3-----|

G|--------------------------------------------|
D|--------------------------------------------|
A|-0-00-00-00-00-0---5---0-00-00-00-00-0---5--|
E|-----------------3---------------------3----|

G|-----------------------|
D|-----------------------|
A|-------------------5---|x2
E|-00-00-00-00-000-3-----|

G|---------------------------|
D|---------------------------|
A|-3--5--55-55-55-55-55-5555-|
E|---------------------------|

G|-----------------------|
D|-----------------------|
A|-------------------5---|x2
E|-00-00-00-00-000-3-----|

G|----------------------------------------------|
D|----------------------------------------------|
A|--3---3---3---3---3---3---3---3->-------------| x2
E|----3---3---3---3---3---3---3---0-000-000-000-|

G|-----------------------------------------|
D|-----------------------------------------|
A|-3---3---3-----3---3---3-----3---3---3---|
E|---3---3---3-----3---3---3-----3---3---3-|

G|------------------------------------------|
D|-----5----------5-5---------5-------------|
A|-7-5---5--7-7-5-----5---7-5---5--5-7-5-7--| x4
E|------------------------------------------|

G|----------------------------------------------|
D|----------------------------------------------|
A|--3---3---3---3---3---3---3---3->-------------| x2
E|----3---3---3---3---3---3---3---0-000-000-000-|

G|--------------------------------------------------------|
D|--------------------------------------------------------|
A|-3---3---3-----3---3---3-----3---3--------3--------->---|
E|---3---3---3-----3---3---3-----3-----3--------3--2--0---|

==                          TABLATURE EXPLANATION                          ==
----------                            ----------
----5h8--- Hammeron                   ----(8)--- Ghost Note
----------                            ----------
----5p8--- Pulloff                    ---8-[8]-- Tie
----------                            ----------
----5/8--- Slide Up                   -----x---- Dead Note
----------                            ----------
----5\8--- Slide Down                 ----------
----------                            ||------|| Repeat Start & End
----5~~~-- Vibrato                    ||*----*||
----------                            ||*----*||
----------                            ||------||


"When a man lies, he murders 
   some part of the world.
  These are the pale deaths
 which men miscall their lives.
     All this I cannot 
  bear to witness any longer
    Cannot the kingdom of
   salvation take me home?"

      - Cliff Burton
            
Submit corrections

comments powered by Disqus
↑ Back to top | Savatage Bass for New York City Don Mean Nothing. Lyrics for acoustic guitar and electric guitar. 1 Tablatures and chords are parodies/interpretations of the original songs. You may use it for private study, scholarship, research or language learning purposes only