>
 >
Mozart And Madness 2

Mozart And Madness 2 Bass Tabs

Savatage - Mozart And Madness 2 chords, tabs, tablatures, lyrics

Guitar lessons | Add/correct | Request | Top 50 tabs Artists:  A B C D E F G H I J K L M N O P Q R S T U V W X Y Z 0-9

Mozart And Madness 2 Bass Tabs – Savatage

CD, Sheet music, Poster

Do you like Mozart And Madness 2? Share with your friends now
Bass TabsBass Tabs v2Tabs

MOZART & MADNESS (Bassline)
As recorded by Savatage
(From the 1995 Album DEAD WINTER DEAD)

	

Music by Jon Oliva / Paul OŽNeill
Arranged by Savatage

Gtr I (B E A D G) - 'Bass ( Johnny Lee Middleton )'

 Intro                       Chorus
  Q=60
 4/4
  Gtr I
  Wx6           Wx4           Q.   +S  S Q.   E
|------------||------------||-------------------|
|------------||------------||-------------------|
|------------||------------||-------------------|
|------------||------------||-8----(8)-8-8----5-|
|------------||------------||-------------------|


  Q.   +S  S Q.   E   Q.   +S  S Q.   E   Q.   +S  S Q.   E
|-------------------|-------------------|--------------------|
|-------------------|-------------------|--------------------|
|-------------------|-------------------|--------------------|
|-8----(8)-8-8----5-|-8----(8)-8-8----5-|-8----(8)-8-8----8--|
|-------------------|-------------------|--------------------|


  Q.   E H      Q.   E H       Q.   +S  S Q..   S
|-------------|-------------||--------------------|
|-------------|-------------||--------------------|
|------8------|------8------||--------------------|
|-6------6----|-6------6----||-5----(5)-5-5-----5-|
|-------------|-------------||--------------------|


                   6/4
  Q.   +S  S H      H    e e E E +H
|-----------------|---------------------|
|-----------------|---------------------|
|-----------------|---------------------|
|-5----(5)-5-5----|-3----1-1---1-(1)----|
|-----------------|---------------------|


   Bridge
    Q=140
   7/8
    q  q  Q.    4x     q  e e e e e  4x     q  q  Q.     4x
||--------------||-||----------------||-||---------------||
||o------------o||-||o--------------o||-||o-------------o||
||--------------||-||----------------||-||---------------||
||o-0--0-------o||-||o-0--0-0-0-0-0-o||-||o-0--0--------o||
||--------------||-||----------------||-||---------------||


 Chorus
  Q=60
 4/4
  Q.   +S  S Q.   E   Q.   +S  S Q.   E
|-------------------|-------------------|
|-------------------|-------------------|
|-------------------|-------------------|
|-8----(8)-8-8----5-|-8----(8)-8-8----5-|
|-------------------|-------------------|


  Q.   +S  S Q.   E   Q.   +S  S Q.   E
|-------------------|-------------------|
|-------------------|-------------------|
|-------------------|-------------------|
|-8----(8)-8-8----5-|-8----(8)-8-8----8-|
|-------------------|-------------------|


   Bridge
    Q=140
   7/8
    q  q  Q.    4x     q  q  Q.
||--------------||-||-------------|
||o------------o||-||o------------|
||--------------||-||-------------|
||o-0--0-------o||-||o-0--0-------|
||--------------||-||-------------|


  q  q  E E E         q  q  Q.    3x q  q  e e e
|--------------||-||--------------||-------------|
|-------------o||-||o------------o||-------------|
|--------------||-||--------------||-------------|
|-0--0--5-3---o||-||o-0--0-------o||-0--0--0-0-0-|
|-----------5--||-||--------------||-------------|


   Interlude
   4/4              7/8                                    9/8
    E  H..        4x q  q  Q.     q  q  Q.     q  q  Q.     q  q  e e e e E
||----------------||------------|------------|------------|-------------------|
||o--------------o||------------|------------|------------|-------------------|
||--5\------------||------------|------------|------------|-------------------|
||o--------------o||-0--0-------|-0--0-------|-0--0-------|-0--0--0-0-0-0-----|
||----------------||------------|------------|------------|-------------------|


   4/4                    7/8
    e e Q  e E S S S S  4x q  q  Q.     q  q  Q.     q  q  Q.     q  q  e e e
||----------------------||------------|------------|------------|-------------|
||o--------------------o||------------|------------|------------|-------------|
||----------------------||------------|------------|------------|-------------|
||o--------------------o||-0--0-------|-0--0-------|-0--0-------|-0--0--0-0-0-|
||--3-3----3---3-3-3-3--||------------|------------|------------|-------------|


 Classical Section
 4/4
  W          W          W          W
|----------|----------|----------|------|
|----------|----------|----------|------|
|----------|----------|----------|------|
|-3--------|-3--------|-5--------|-5----|
|----------|----------|----------|------|


                       5/4
  W          W          S S S S S S S S S S S S E E. E.
|----------|----------|----------------------------------|
|----------|----------|----------------------------------|
|----------|----------|----------------------------------|
|-6--------|-6--------|---------------------------5------|
|----------|----------|---8-6---6-5---5-3---3-2----------|


 4/4
  Wx12           Wx2           Wx2
|-------------||------------||------------|
|-------------||------------||------------|
|-------------||------------||------------|
|-------------||------------||------------|
|-------------||------------||------------|


   4/4
    W          +W           W          W
||-----------|------------|----------|-------||
||o----------|------------|----------|------o||
||-----------|------------|-3--------|-1-----||
||o-1--------|-(1)--------|----------|------o||
||-----------|------------|----------|-------||


  W          e H..         W          e h..
|----------|-------------|----------|----------|
|----------|-------------|----------|----------|
|----------|-------------|----------|----------|
|-1--------|-1-1---------|-6--------|-6-6------|
|----------|-------------|----------|----------|


  W          e h..         W          e h..
|----------|-------------|----------|----------|
|----------|-------------|----------|----------|
|----------|-------------|----------|----------|
|-0--------|-0-0---------|-5--------|-5-5------|
|----------|-------------|----------|----------|


  W          e H..         W          e H..
|----------|-------------|----------|----------|
|----------|-------------|----------|----------|
|----------|-------------|----------|----------|
|-8--------|-8-8---------|-3--------|-3-3------|
|----------|-------------|----------|----------|


  W          q  q  q  q    W          q  q  q  q
|----------|-7--3--------|----------|-------------|
|----------|-------5-----|----------|-7--3--------|
|----------|----------5--|----------|-------5-----|
|-3--------|-------------|-1--------|----------5--|
|----------|-------------|----------|-------------|


                                                         6/4
  W           Q  Q  Q  Q    W           Q   Q   Q   Q     Q  Q  Q  Q  Q  Q
|----------|-10--7--------|----------|-13--10----------||-------------------|
|----------|--------9--6--|----------|---------12------||-------------------|
|----------|--------------|----------|-------------14--||-------------------|
|-1--------|--------------|-7--------|-----------------||----------------3--|
|----------|--------------|----------|-----------------||-1--2--1--0--1-----|


   Bridge
   7/8
    q  q  Q.    4x     q  q  E E E  8x     q  q  Q.    3x q  q  e e e
||--------------||-||---------------||-||--------------||-------------|
||o------------o||-||o-------------o||-||o------------o||-------------|
||--------------||-||---------------||-||--------------||-------------|
||o-0--0-------o||-||o-0--0--5-3---o||-||o-0--0-------o||-0--0--0-0-0-|
||--------------||-||------------5--||-||--------------||-------------|


 Outro
 4/4
  E Q.   E Q.     E Q.   E Q.
|---------------|---------------||
|---------------|---------------||
|---------------|---------------||
|---------------|---------------||
|-3------5------|-6------8------||


   S  S  S  S  S  S  S  S  S  S  S  S  S  S  S  S
|-------------------------------------------------|
|-------------------------------------------------|
|-11----------------------------------------------|
|----14-12-11-14-12-11----12-11-------11----------|
|----------------------14-------14-12----14-12-10-|


  Q=120    Q=100 Q=80Q=60
 6/4                            4/4
   S  S  S S S S S S W           W          W          +W
|-----------------------------||----------|----------|--------*|
|-----------------------------||----------|----------|--------*|
|-----------------------------||----------|----------|--------*|
|-----------------------------||-3--------|----------|--------*|
|-14-12-10-9-7-5-4-0-2--------||----------|-3--------|-(3)----*|



Duration Legend
---------------
W - whole; H - half; Q - quarter; E - 8th; S - 16th; T - 32nd; X - 64th; a - acciaccatura
+ - note tied to previous; . - note dotted; .. - note double dotted
Uncapitalized letters represent notes that are staccato (1/2 duration)
Irregular groupings are notated above the duration line
Duration letters will always appear directly above the note/fret number it represents the
duration for.  Duration letters with no fret number below them represent rests.  Multi-
bar rests are notated in the form Wxn, where n is the number of bars to rest for.  Low
melody durations appear below the staff

Tablature Legend
----------------
 h   - hammer-on
 p   - pull-off
 b   - bend
 pb  - pre-bend
 r   - bend release (if no number after the r, then release immediately)
 /\  - slide into or out of (from/to "nowhere")
 s   - legato slide
 S   - shift slide
 - natural harmonic
[n]  - artificial harmonic
n(n) - tapped harmonic
 ~   - vibrato
 tr  - trill
 T   - tap
 TP  - trem. picking
 PM  - palm muting
\n/  - tremolo bar dip; n = amount to dip
 \n  - tremolo bar down
 n/  - tremolo bar up
/n\  - tremolo bar inverted dip
 =   - hold bend; also acts as connecting device for hammers/pulls
 <> - volume swell (louder/softer)
 x   - on rhythm slash represents muted slash
 o   - on rhythm slash represents single note slash

Misc Legend
-----------
 |  - bar
||  - double bar
||o - repeat start
o|| - repeat end
*|  - double bar (ending)
 :  - bar (freetime)
 $  - Segno
 &  - Coda
Tempo markers -  = BPM(8/16=s8/s16), where s8 = swing 8ths, s16 = swing 16ths





Comments


Popular Savatage tabs & chords
Awaken Bass Tabs
Gutter Ballet 1 Bass Tabs
Prelude To Madness Bass Tabs
Edge Of Thorns Chords
Complaint In The System Tabs
Handful Of Rain Tabs
Handful Of Rain 1 Tabs
Jesus Saves Tabs
Prelude To Madness Tabs
Unholy Tabs


Song lyrics



↑ Back to top | Tablatures and chords are parodies/interpretations of the original songs. You may use it for private study, scholarship, research or language learning purposes only
© 2014 AZChords.com Contact us | Privacy policy | DMCA | Add/correct tabs | Request tabs | Top 50 tabs