» » »

Savatage, Legions Bass tabs (ver.1)

Artists:  A B C D E F G H I J K L M N O P Q R S T U V W X Y Z # 

Legions Bass tabs (ver.1)

Savatage Tabs
Rating:
0/5 (0 votes)
Legions lessons Tabs too difficult? Try these video lessons and learn fast
                || Band: Savatage                            ||
||                                           ||
||                                           ||
|| Date: 6th December 2003                   ||
||                                           ||
|| Note: For any suggestions don't hesitate  ||
||                                           ||
||                                           ||
||-------------------------------------------||
||-------------------------------------------||
||                                           ||
|| Normal Tuning                             ||
||                                           ||
|| G D A E                                   ||
||                                           ||
||-------------------------------------------||
-----------------------------------------------

G|--------------------|
D|--------------------|
A|--------------------| x16
E|-0-222-520-2-2-25-0-|

G|--------------------|
D|--------------------|
A|----------------2---|
E|-0-222-520-2-2-2--3-|

G|--------------------|--------------------|
D|--------------------|--------------------|
A|--------------------|----------------2---| x6
E|-0-222-520-2-2-25-0-|-0-222-520-2-2-2--3-|

G|------------------------------------------------|
D|------------------------------------------------|
A|------------------------------------------------| x2
E|-2-22-222-0-2-22-222-0-00-000-0-2-22---5555-77--|

G|---------------------------------------------------------------|
D|---------------54-54--------------54-54-------------54-54------|
A|-5----------54-------5---------54-------5--------54--------5-7-|
E|---5--53-2-------------5--53-2------------5-53-2---------------|

G|--------------------|--------------------|
D|--------------------|--------------------|
A|--------------------|----------------2---| x6
E|-0-222-520-2-2-25-0-|-0-222-520-2-2-2--3-|

G|------------------------------------------------|
D|------------------------------------------------|
A|------------------------------------------------| x2
E|-2-22-222-0-2-22-222-0-00-000-0-2-22---5555-77--|

G|---------------------------------------------------------------|
D|---------------54-54--------------54-54-------------54-54------|
A|-5----------54-------5---------54-------5--------54--------5-7-|
E|---5--53-2-------------5--53-2------------5-53-2---------------|

G|--------------------|--------------------|
D|--------------------|--------------------|
A|--------------------|----------------2---| x2
E|-0-222-520-2-2-25-0-|-0-222-520-2-2-2--3-|

G|------------------------------------------------------------------|
D|------------------------------------------------------------------|
A|-9-999-999-999-9-5-7-777-777-777-7-4-5-555-555-555-55-4-2-0---0-2-| x4
E|------------------------------------------------------------4-----|

G|-------------|
D|-------------|
A|-4-2-0---0-2-|
E|-------4-----|

G|--------------------|--------------------|
D|--------------------|--------------------|
A|--------------------|----------------2---|
E|-0-222-520-2-2-25-0-|-0-222-520-2-2-2--3-|

G|--------------------|-------------|
D|--------------------|-------------|
A|--------------------|-----------.-|
E|-0-222-520-2-2-25-0-|-0-222-520-2-|

G|--------------------|--------------------|
D|--------------------|--------------------|
A|--------------------|----------------2---| x4
E|-0-222-520-2-2-25-0-|-0-222-520-2-2-2--3-|

G|---------------------------------------------------------------|
D|---------------54-54--------------54-54-------------54-54------|
A|-5----------54-------5---------54-------5--------54--------5-7-|
E|---5--53-2-------------5--53-2------------5-53-2---------------|

G|--------------------|--------------------|
D|--------------------|--------------------|
A|--------------------|----------------2---|
E|-0-222-520-2-2-25-0-|-0-222-520-2-2-2--3-| (play this continuously and fade out...)


P.S.:
"... we're coming out tonight, we come from the darker light..."

==                          TABLATURE EXPLANATION                          ==
----------                            ----------
----5h8--- Hammeron                   ----(8)--- Ghost Note
----------                            ----------
----5p8--- Pulloff                    ---8-[8]-- Tie
----------                            ----------
----5/8--- Slide Up                   -----x---- Dead Note
----------                            ----------
----5\8--- Slide Down                 ----------
----------                            ||------|| Repeat Start & End
----5~~~-- Vibrato                    ||*----*||
----------                            ||*----*||
----------                            ||------||


"When a man lies, he murders 
   some part of the world.
  These are the pale deaths
 which men miscall their lives.
     All this I cannot 
  bear to witness any longer
    Cannot the kingdom of
   salvation take me home?"

      - Cliff Burton
            
Submit corrections

comments powered by Disqus
↑ Back to top | Savatage Bass for Legions. Lyrics for acoustic guitar and electric guitar. Tablatures and chords are parodies/interpretations of the original songs. You may use it for private study, scholarship, research or language learning purposes only