» » »

Last Dawn Tabs (ver.2)

Artists:  A B C D E F G H I J K L M N O P Q R S T U V W X Y Z # 

Last Dawn Tabs (ver.2)

Savatage
Rating:
5/5 (1 vote)

Hard to play? Try these video lessons and learn fast.
                Last Dawn - Savatage

Clean Electric - (e b g d a e)

* = Let Ring

e||-------5-----|-------8-----|-------------|------6-----|
b||o---------6--|----------9--|-------8-----|---------7--|
g||-----7-------|----10-------|----------8--|----8-------|
d||-------------|-------------|----10-------|------------|
a||o-5*---------|-8*----------|-------------|-6*---------|
e||-------------|-------------|-8*----------|------------|

e|------------|-------------|------------|------2-----|
b|------6-----|-------9-----|------4-----|---------3--|
g|---------6--|----------9--|---------4--|----4-------|
d|----8-------|----11-------|----6-------|------------|
a|------------|-------------|------------|-2*---------|
e|-6*---------|-9*----------|-4*---------|------------|

e|------------|-------------|------------|-------------|
b|------2-1-2-|-------------|------2-1-2-|------------o|
g|----3-------|-3*----------|----3-------|-3*----------|
d|------------|-------------|------------|-------------|
a|-1*---------|-------------|-1*---------|------------o|
e|------------|-----1---1---|------------|-----1---1---|

e|-----------|-0-------------|-----3/5-|---5---|
b|-3-----2h3-|----3--2-2h3p2-|-----3/5-|---5---|
g|-2---------|---------------|-2-------|-------|
d|-2---------|---------------|---------|-------|
a|-----------|---------------|---------|-------|
e|-----------|---------------|---------|-------|

e|-------------|-------------|-----------------------------------|
b|-10--10------|------6------|--------------10h11p10-8-10-8------|
g|--------10-9-|--------9-7--|-10--9--7---------------------10-9-|
d|-------------|-------------|-----------10----------------------|
a|-------------|-------------|-----------------------------------|
e|-10*---------|-6-10--------|--8--8--8---8----------------------|

e|---------------|-------------|-----------------------------------|
b|-------10------|------6------|--------------10h11p10-8-10-8------|
g|-----7----10-9-|--------9-7--|-10--9--7---------------------10-9-|
d|---------------|-------------|-----------10----------------------|
a|---------------|-------------|-----------------------------------|
e|-10*-----------|-6-10--------|--8--8--8---8----------------------|

e|---------------|-------------|----------------|----------------|
b|-------10------|------6------|-10-8-8---------|-10-8-8---------|
g|-----7----10-9-|--------9-7--|--------10-10-9-|--------10-10-9-|
d|---------------|-------------|----------------|----------------|
a|---------------|-------------|----------------|----------------|
e|-10*-----------|-6-10--------|--8*--8*----8*--|--8*--8*----8*--|

e|------------------------|-8---8--8--|----------------|-------||
b|-10-10p8h10p8-8---------|-----8-----|----------------|-------||
g|----------------10-10-9-|--------10-|-9h10p9-7*------|-------||
d|------------------------|-10--------|-------------10-|-10*---||
a|------------------------|-----------|----------------|-------||
e|--8*----------8*----8*--|-(8)-------|-8*-----------8-|--8*---||


you might want to listen to the song 
to get the exact feel for it but this right on.
            
Hard to play? Try these video lessons and learn fast. | Correct




comments powered by Disqus
↑ Back to top | Tablatures and chords are parodies/interpretations of the original songs. You may use it for private study, scholarship, research or language learning purposes only