» » »

Savatage, Hall Of The Mountain King Tabs (ver.1)

Artists:  A B C D E F G H I J K L M N O P Q R S T U V W X Y Z # 

Hall Of The Mountain King Tabs (ver.1)

Savatage Tabs
Rating:
3/5 (6 votes)
Hall Of The Mountain King lessons Tabs too difficult? Try these video lessons and learn fast
                
  
                        HALL OF THE MOUNTAIN KING"
                                 savatage



transcipted by:DarkHenge


   intro:

     6 times
E-]----------------------------------------------------------------------------|
B-]----------------------------------------------------------------------------|
G-]----------------------------------------------------------------------------|
D-]-----------------------------------3-----2-----0----------------------------|
A-]---0-0-2---2-2-2---0-0--0-2~---0-0---0-0---0-0------------------------------|
E-]---------------------------------------------------5~-----------------------|

  rythem for solo 1:
  (notice the different timing)
E-]----------------------------------------------------------------------------|
B-]----------------------------------------------------------------------------|
G-]----------------------------------------------------------------------------|
D-]----------------------------------3-----2-----0-----------------------------|
A-]---0-0-2---2-2-2---0-0-0-2~---0-0---0-0---0-0-------------------------------|
E-]---------------------------------------------------5~-----------------------|


E-]----------------------------------------------------------------------------|
B-]----------------------------s-----------------------------------------------|
G-]o----------5---------4----5-\-7---------------5--------4---------2----------|
D-]o----------5---------4------------------------5--------4---------2----------|
A-]-----------3---------2----3-\-5---------------3--------2---------0----------|
E-]----0---0------0---0----0---------------0---0----0--0---------0-------------|


E-]----------------------------------------------------------------------------|
B-]----------------------------s-----------------------s-----------------------|
G-]-----------5---------4----5-\-7---------------5---5-\-7--7--5--4------------|
D-]-----------5---------4------------------------5-----------------------------|
A-]-----------3---------2----3-\-5---------------3---3-\-5--5--3--2------------|
E-]----0---0--------0-----0--------------0---0-----0---------------------------|



E-]----------------------------------------------------------------------------|
B-]----------------------------------------------------------------------------|
G-]-----9------------9----7~---------------------------------------------------|
D-]----------------------------------------------------------------------------|
A-]-----7------------7----5~---------------------------------------------------|
E-]----------------------------------------------------------------------------|

E-]----------------------------------------------------------------------------|
B-]----------------------------------------------------------------------------|
G-]-----2-0----------------4---2---4-----------------4~---2---4/5-4--4/5-4-----|
D-]-----------4-2-4--2h4p0-------------4---2---4-----4~---2---4/5-4--4/5-4-----|
A-]------------------------------------2---0---2-----2~---0-0-2/3-2--2/3-2-----|
E-]--------------------------------------0---0-----0---------------------------|


E-]----------------------------------------------------------------------------|
B-]--------------------------------------------------------s-------------------|
G-]------4-----------------------------------------------X-\~~ ----------------|
D-]------4-----------4---------5-------------------------X-\~~ ----------------|
A-]------2-----------4---------5-------------------------X-\~~ ----------------|
E-]------------------2---------3-----------------------------------------------|

E-]----------------------------------------------------------------------------|
B-]----------------------------------------------------------------------------|
G-]----------------------------------------------------------------------------|
D-]----------------------------------3-----2-----0-----------------------------|
A-]---0-0-2---2-2-2---0-0-0-2~---0-0---0-0---0-0-------------------------------|
E-]---------------------------------------------------5~-----------------------|



E-]----------------------------------------------------------------------------|
B-]----------------------------s-----------------------------------------------|
G-]o----------5---------4----5-\-7---------------5--------4---------2----------|
D-]o----------5---------4------------------------5--------4---------2----------|
A-]-----------3---------2----3-\-5---------------3--------2---------0----------|
E-]----0---0------0---0----0---------------0---0----0--0---------0-------------|


E-]----------------------------------------------------------------------------|
B-]----------------------------s-----------------------s-----------------------|
G-]-----------5---------4----5-\-7---------------5---5-\-7--7--5--4------------|
D-]-----------5---------4------------------------5-----------------------------|
A-]-----------3---------2----3-\-5---------------3---3-\-5--5--3--2------------|
E-]----0---0--------0-----0--------------0---0-----0---------------------------|


E-]----------------------------------------------------------------------------|
B-]----------------------------------------------------------------------------|
G-]-----9------------9----7~---------------------------------------------------|
D-]----------------------------------------------------------------------------|
A-]-----7------------7----5~---------------------------------------------------|
E-]----------------------------------------------------------------------------|


E-]----------------------------------------------------------------------------|
B-]----------------------------------------------------------------------------|
G-]-----2-0----------------4---2---4-----------------4~---2---4/5-4--4/5-4-----|
D-]-----------4-2-4--2h4p0-------------4---2---4-----4~---2---4/5-4--4/5-4-----|
A-]------------------------------------2---0---2-----2~---0-0-2/3-2--2/3-2-----|
E-]--------------------------------------0---0-----0---------------------------|


E-]----------------------------------------------------------------------------|
B-]--------------------------------------------------------s-------------------|
G-]------5-----------------------------------------------X-\~~ ----------------|
D-]------5-----------5---------6-------------------------X-\~~ ----------------|
A-]------3-----------5---------6-------------------------X-\~~ ----------------|
E-]------------------3---------4-----------------------------------------------|

E-]----------------------------------------------------------------------------|
B-]----------------------------------------------------------------------------|
G-]----------------------------------------------------------------------------|
D-]----------------------------------3-----2-----0-----------------------------|
A-]---0-0-2---2-2-2---0-0-0-2~---0-0---0-0---0-0-------------------------------|
E-]---------------------------------------------------5~-----------------------|

   interlude:
E-]----------------------------------------------------------------------------|
B-]----------------------------------------------------------------------------|
G-]----4-44-4--4---------2------4/6--7-/-9----9-\-7--7\6-----------------------|
D-]----4-44-4--4-----5---2-----------------------------------------------------|
A-]----2-22-2--2-----5---0------2/4--5-/-7----7-\-5--5\4-----------------------|
E-]------------------3---------------------------------------------------------|


E-]----------------------------------------------------------------------------|
B-]----------------------------------------------------------------------------|
G-]----4-44-4--4----7----2------4/9------9-\-7---7-\-6---6-\-4-----------------|
D-]----4-44-4--4----7----2-----------------------------------------------------|
A-]----2-22-2--2----5----0------2/7------7-\-5---5-\-4---4-\-2-----------------|
E-]----------------------------------------------------------------------------|

                 (32 X's)                                          28 times

E-]----------------------------------------------------------------------------|
B-]----------------------------------------------------------------------------|
G-]----------------------------------------------------------------------------|
D-]----------5-p-4----0-0--2---------------------------------------------------|
A-]-----2-2------------------4-4---5---2~--------------------------------------|
E-]----------------------------------------------------------------------------|
   p.m..................................


E-]----------------------------------------------------------------------------|
B-]----------------------------------------------------------------------------|
G-]---------------4------------------------------------------------------------|
D-]---------------4------------------------------------------------------------|
A-]---------------2------------------------------------------------------------|
E-]----------------------------------------------------------------------------|

    rythem for solo2:                                                four times

E-]----------------------------------------------------------------------------|
B-]----------------------------------------------------------------------------|
G-]---------------4----------------4-------------------------------------------|
D-]---------------4--------5-5-5---4--------5--5---7---------------------------|
A-]---------------2--------5-5-5---2--------5--5---7---------------------------|
E-]-----------------0-0-0--3-3-3-----0-0-0--3--3---5---------------------------|


E-]----------------------------------------------------------------------------|
B-]-------------------------------2---------------------------------5----------|
G-]--------------------------2---------2-------------------------5-----5-------|
D-]-------------------4---------------------4----------------7------------7----|
A-]-------------4----------------------------------------7---------------------|
E-]-------2-----------------------------------------5--------------------------|


repeat verse and chorus.


outro:


E-]----------------------------------------------------------------------------|
B-]----------------------------------------------------------------------------|
G-]--4-----------4-------------4-----------4-----------------------------------|
D-]--4-----4-----4------4------4-----4-----4-----------------------------------|
A-]--2-----4-----2------4------2-----4-----2-----------------------------------|
E-]--------2------------2------------2-----------------------------------------|


   clean
E-]--------------------------------------2-------------------------------------|
B-]---------2h3-p2------2h3------------2---------------------------------------|
G-]----------------------------------3-----------------------------------------|
D-]------------------2-------------3-------------------------------------------|
A-]----2-----------------------------------------------------------------------|
E-]----------------------------------------------------------------------------|
            

comments powered by Disqus
↑ Back to top | Savatage Tabs for Hall Of The Mountain King. Lyrics for acoustic guitar and electric guitar. Tablatures and chords are parodies/interpretations of the original songs. You may use it for private study, scholarship, research or language learning purposes only