» » »

Awaken Tabs (ver.1)

Artists:  A B C D E F G H I J K L M N O P Q R S T U V W X Y Z # 

Awaken Tabs (ver.1)

Savatage
Rating:
5/5 (1 vote)

Hard to play? Try these video lessons and learn fast.
                *************
Bass Verse (plays 2x alone with drums)
*************

|----------------------------------------------------------------------------|
|----------------------------------------------------------------------------|
|-------------------------------4-----------------3-----------------0-----0--|
|-0-----1-----2-----0-----2-----------0-----2-----------0-----2--------------|


|----------------------------------------------------------------------------|
|-------------------------------4--------------------------------------------|
|-------------------------------------------------3-----------------2-----2--|
|-0-----1-----2-----0-----2-----------0-----2-----------0-----2--------------|



*************
VERSE A:
*************

  PM----|
|------------------------------------------------------------|
|------------------------------------------------------------|
|------------------------------------------------------------|
|-2-----3-----4-----2-----4----------------------------------|
|-2-----3-----4-----2-----4----------------------------------|
|-0-----1-----2-----0-----2----------------------------------|

                              Can you see the future?


  PM----|
|------------------------------------------------------------|
|------------------------------------------------------------|
|---------------------------------------------------4--------|
|-2-----3-----4-----2-----4-------------------------4--------|
|-2-----3-----4-----2-----4-------------------------2--------|
|-0-----1-----2-----0-----2----------------------------------|

                               Though it's well disguised?


  PM----|
|------------------------------------------------------------|
|------------------------------------------------------------|
|---------------------------------------------------2--------|
|-2-----3-----4-----2-----4-------------------------2--------|
|-2-----3-----4-----2-----4-------------------------0--------|
|-0-----1-----2-----0-----2----------------------------------|

                               Is the end so       certain


  PM----|
|------------------------------------------------------------|
|------------------------------------------------------------|
|---------------------------------------------------4--------|
|-2-----3-----4-----2-----4-------------------------4--------|
|-2-----3-----4-----2-----4-------------------------2--------|
|-0-----1-----2-----0-----2----------------------------------|

                              That      you      closed  your eyes?

*************
VERSE B:
*************

  PM----|
|----------------------------------------------------------------------------|
|----------------------------------------------------------------------------|
|-------------------------------------------------------------------2-----2--|
|-2-----3-----4-----2-----4-----------2-----4-----------2-----4-----2-----2--|
|-2-----3-----4-----2-----4-----4-----2-----4-----3-----2-----4-----0-----0--|
|-0-----1-----2-----0-----2-----------0-----2-----------0-----2--------------|

 Dark as the dark can be......


  PM----|
|----------------------------------------------------------------------------|
|----------------------------------------------------------------------------|
|-------------------------------------------------5-----------------4-----4--|
|-2-----3-----4-----2-----4-----4-----2-----4-----5-----2-----4-----4-----4--|
|-2-----3-----4-----2-----4-----------2-----4-----3-----2-----4-----2-----2--|
|-0-----1-----2-----0-----2-----------0-----2-----------0-----2--------------|

 Exits exist in life......


  PM----|
|----------------------------------------------------------------------------|
|----------------------------------------------------------------------------|
|-------------------------------------------------------------------2-----2--|
|-2-----3-----4-----2-----4-----------2-----4-----------2-----4-----2-----2--|
|-2-----3-----4-----2-----4-----4-----2-----4-----3-----2-----4-----0-----0--|
|-0-----1-----2-----0-----2-----------0-----2-----------0-----2--------------|

 Now's not the time to sleep......


  PM----|
|-----------------------------------------------------------------------------------------|
|-----------------------------------------------------------------------------------------|
|-----------------------------------------------------------------------------------------|
|-2-----3-----4-----2-----4-----4-----2-----4------2-----------------------7-----6--------|
|-2-----3-----4-----2-----4-----------2-----4------2-----5-----4-----------------------7--|
|-0-----1-----2-----0-----2-----------0-----2------0-----------------5--------------------|

 Chances are there to take                              Now   it     is    time      to


*************
CHORUS A:
*************                                                                                

(2x)
|------------------------------------------------------------------------------------------|
|------------------------------------------------------------------------------------------|
|------------------------------------------------------------------------------------------|
|-/4---4---2---4------------/4---4---2---4------------/4---4---2---4-----------------------|
|-/4---4---2---4------------/4---4---2---4------------/4---4---2---4---4--3--0--2--3--4----|
|-/2---2---0---2------------/2---2---0---2------------/2---2---0---2-----------------------|
                    Awa  -  ken                 Awa  -  ken

*************
CHORUS B:
*************

(after 2nd CHORUS A)
|-----------------------|
|-----------------------|
|-----------------------|
|--------------7--6-----|
|----4--3--0---------7--|
|-----------------------|

{Bass Verse 2x alone}
{VERSE A}
{VERSE B}
{CHORUS A (2x)}

*************
CHORUS C:
*************

|--------------------------------------------|
|--------------------------------------------|
|--------------------------------------------|
|-------------------------------------7-6----|
|--4-3-0--2-3-4--4-3-0--2-3-4--4-3-0------7--|
|--------------------------------------------|

*************
BRIDGE A (4x):
*************

|----------------------------------|
|----------------------------------|
|----------------------------------|
|----------------------------------|
|---5-7---5-7---5-7---5-7---5-7----|
|-0-----0-----0-----0-----0-----6--|


*************
BRIDGE B:
*************

|-----------------------------------------------------|
|-----------------------------------------------------|
|-----------------------------------------------------|
|------------------7-5-------------------------7-6----|
|---7--/8-/8----7------7-5----7--/8-/8--5-4--------7--|
|-0-----------0-------------0---------------5---------|


{CHORUS A (4x)}

*************
OUTRO:
*************

|----------------------------------|
|----------------------------------|
|----------------------------------|
|-4-4-4-2---4----------------------|
|-4-4-4-2---4----------------------|
|-2-2-2-0---2----------------------|


{END}
            
Hard to play? Try these video lessons and learn fast. | Correct




comments powered by Disqus
↑ Back to top | Tablatures and chords are parodies/interpretations of the original songs. You may use it for private study, scholarship, research or language learning purposes only