>
 >
All That I Bleed

All That I Bleed Bass Tabs

Savatage - All That I Bleed chords, tabs, tablatures, lyrics

Guitar lessons | Add/correct | Request | Top 50 tabs Artists:  A B C D E F G H I J K L M N O P Q R S T U V W X Y Z 0-9

All That I Bleed Bass Tabs – Savatage

CD, Sheet music, Poster

Do you like All That I Bleed? Share with your friends now
Bass TabsChordsTabsTabs v2Ukulele

ALL THAT I BLEED (Bassline)
As recorded by Savatage
(From the 1993 Album THE EDGE OF THORNS)

	

Music by Jon & Criss Oliva, O'Neil

Gtr I (E A D G) - 'Jhonny'

 Intro        Verse        Pre-Verse    Guitar Break Verse        Pre-Chorus
  Q=77
 4/4
  Gtr I
  Wx4          Wx8          Wx8          Wx4          Wx8          Wx8
|------------|------------|------------|------------|------------|--------|
|------------|------------|------------|------------|------------|--------|
|------------|------------|------------|------------|------------|--------|
|------------|------------|------------|------------|------------|--------|


 Bridge 2
  Wx7          E E E E E E E E
|------------|-----------------|
|------------|-----------------|
|------------|-----------------|
|------------|-1-1-1-1-1-1-1-1-|


                   Chorus
  E E E E E E E E   Q  Q  Q  Q    Q  Q  Q  Q    Q  Q  E E E E
|-----------------|-------------|-------------|----------------|
|-----------------|-------------|-1--1--0--1--|----------------|
|-----------------|-1--0--------|-------------|-1--0----0------|
|-1-1-1-1-1-1-1-1-|-------3--1--|-------------|-------3---3-1--|


  E E E E E E E E   Q  Q  Q  Q    Q  Q  Q  Q    Q  Q  E E E E
|-----------------|-------------|-------------|----------------|
|-----------------|-------------|-1--1--0--1--|----------------|
|-----------------|-1--0--------|-------------|-1--0----0------|
|-1-1-1-1-1-1-1-1-|-------3--1--|-------------|-------3---3-1--|


  E E E E E E E E   Q  Q  Q  Q    Q  Q  Q  Q    Q  Q  E E E E
|-----------------|-------------|-------------|----------------|
|-----------------|-------------|-1--1--0--1--|----------------|
|-----------------|-1--0--------|-------------|-1--0----0------|
|-1-1-1-1-1-1-1-1-|-------3--1--|-------------|-------3---3-1--|


  E E E E E E E E   Q  Q  Q  Q    Q  Q  Q  Q    Q  Q  E E E E
|-----------------|-------------|-------------|----------------|
|-----------------|-------------|-1--1--0--1--|----------------|
|-----------------|-1--0--------|-------------|-1--0----0------|
|-1-1-1-1-1-1-1-1-|-------3--1--|-------------|-------3---3-1--|


  E E E E E E E E   E E E E E E E E   E E E E E E E E   E E E E E E E E
|-----------------|-----------------|-----------------|------------------|
|-----------------|-----------0-0-1-|-1-1-1-1---------|-----------0-0-1--|
|-----------------|-1-1-1-1-1-------|-----------------|-1-1-1-1-1--------|
|-1-1-1-1-1-1-1-1-|-----------------|---------3-3-1-1-|------------------|


  E E E E E E E E   E E E E E E E E   E E E E E E E E   E E E E E E E E
|-----------------|-----------------|-----------------|------------------|
|-1-1-1-1---------|-----------0-0-1-|-1-1-1-1---------|-----------0-0-1--|
|-----------------|-1-1-1-1-1-------|-----------------|-1-1-1-1-1--------|
|---------3-3-1-1-|-----------------|---------3-3-1-1-|------------------|


                   Guitar Solo
  E E E E E E E E   Q  Q  Q  Q    Q  Q  Q  Q    Q  Q  Q  Q
|-----------------|-------------|-------------|--------------|
|-1-1-1-1-1-1-1-1-|-------------|-------------|--------------|
|-----------------|-------------|-------------|-1--0---------|
|-----------------|-1--1--1--1--|-1--1--1--1--|-------3--1---|


  Q  Q  Q  Q    Q  Q  E E E E   E E E E E E E E   Q  Q  Q  Q
|-------------|---------------|-----------------|--------------|
|-1--1--0--1--|---------------|-----------------|--------------|
|-------------|-1--0----0-----|-----------------|-1--0---------|
|-------------|-------3---3-1-|-1-1-1-1-1-1-1-1-|-------3--1---|


                                                 Chorus
  Q  Q  Q  Q    Q  Q  E E E E   E E E E E E E E   Q  Q  Q  Q
|-------------|---------------|-----------------|--------------|
|-1--1--0--1--|---------------|-----------------|--------------|
|-------------|-1--0----0-----|-----------------|-1--0---------|
|-------------|-------3---3-1-|-1-1-1-1-1-1-1-1-|-------3--1---|


  Q  Q  Q  Q    Q  Q  E E E E   E E E E E E E E   Q  Q  Q  Q
|-------------|---------------|-----------------|--------------|
|-1--1--0--1--|---------------|-----------------|--------------|
|-------------|-1--0----0-----|-----------------|-1--0---------|
|-------------|-------3---3-1-|-1-1-1-1-1-1-1-1-|-------3--1---|


  Q  Q  Q  Q    Q  Q  E E E E   E E E E E E E E   Q  Q  Q  Q
|-------------|---------------|-----------------|--------------|
|-1--1--0--1--|---------------|-----------------|--------------|
|-------------|-1--0----0-----|-----------------|-1--0---------|
|-------------|-------3---3-1-|-1-1-1-1-1-1-1-1-|-------3--1---|


  Q  Q  Q  Q    Q  Q  E E E E   E E E E E E E E   Q  Q  Q  Q
|-------------|---------------|-----------------|--------------|
|-1--1--0--1--|---------------|-----------------|--------------|
|-------------|-1--0----0-----|-----------------|-1--0---------|
|-------------|-------3---3-1-|-1-1-1-1-1-1-1-1-|-------3--1---|


                                          Outro
                                         H.=H
  Q  Q  Q  Q    Q  Q  E E E E   W          Wx3
|-------------|---------------|----------|--------*|
|-1--1--0--1--|---------------|----------|--------*|
|-------------|-1--0----0-----|----------|--------*|
|-------------|-------3---3-1-|-1--------|--------*|



Duration Legend
---------------
W - whole; H - half; Q - quarter; E - 8th; S - 16th; T - 32nd; X - 64th; a - acciaccatura
+ - note tied to previous; . - note dotted; .. - note double dotted
Uncapitalized letters represent notes that are staccato (1/2 duration)
Irregular groupings are notated above the duration line
Duration letters will always appear directly above the note/fret number it represents the
duration for.  Duration letters with no fret number below them represent rests.  Multi-
bar rests are notated in the form Wxn, where n is the number of bars to rest for.  Low
melody durations appear below the staff

Tablature Legend
----------------
 h   - hammer-on
 p   - pull-off
 b   - bend
 pb  - pre-bend
 r   - bend release (if no number after the r, then release immediately)
 /\  - slide into or out of (from/to "nowhere")
 s   - legato slide
 S   - shift slide
 - natural harmonic
[n]  - artificial harmonic
n(n) - tapped harmonic
 ~   - vibrato
 tr  - trill
 T   - tap
 TP  - trem. picking
 PM  - palm muting
\n/  - tremolo bar dip; n = amount to dip
 \n  - tremolo bar down
 n/  - tremolo bar up
/n\  - tremolo bar inverted dip
 =   - hold bend; also acts as connecting device for hammers/pulls
 <> - volume swell (louder/softer)
 x   - on rhythm slash represents muted slash
 o   - on rhythm slash represents single note slash

Misc Legend
-----------
 |  - bar
||  - double bar
||o - repeat start
o|| - repeat end
*|  - double bar (ending)
 :  - bar (freetime)
 $  - Segno
 &  - Coda
Tempo markers -  = BPM(8/16=s8/s16), where s8 = swing 8ths, s16 = swing 16ths





Comments


Popular Savatage tabs & chords
A Little Too Far Chords
A Little Too Far Tabs
Damien Tabs
Edge Of Thorns 1 Tabs
Hall Of The Mountain King Tabs
Hall Of The Mountain King (Intro) Tabs
Handful Of Rain Tabs
Handful Of Rain 1 Tabs
Morning Sun Tabs
Sleep 1 Tabs


Song lyrics



↑ Back to top | Tablatures and chords are parodies/interpretations of the original songs. You may use it for private study, scholarship, research or language learning purposes only
© 2014 AZChords.com Contact us | Privacy policy | DMCA | Add/correct tabs | Request tabs | Top 50 tabs